Song name
# A B C D E F G H I J K L M N O P Q R S T U V W X Y Z

Rob Zombie - Rock And Roll In A Black Hole tab

-------------------------------------------------------------------------------
                             Rock and Roll (In A Black Hole) - Rob Zombie
-------------------------------------------------------------------------------
Tabbed by: beastkevin
E-mail: beastkevin@hotmail.com

Tuning: Drop D

Intro riff:
e|---------------------------------------------------------------------------|
B|---------------------------------------------------------------------------|
G|---------------------------------------------------------------------------|
D|---------------------------------------------------------------------------|
A|---------------------------------------------------------------------------|
D|---0--0--0--0--0-3-0-5-0-3-0--0--0--0--0----(x12)--------------------------|

Chorus Riff
e|---------------------------------------------------------------------------|
B|---------------------------------------------------------------------------|
G|---------------------------------------------------------------------------|
D|---0--0--0--0--0-3-0-5-0-3-0--0--0--0--0-----------------------------------|
A|---0--0--0--0--0-3-0-5-0-3-0--0--0--0--0-----------------------------------|
D|---0--0--0--0--0-3-0-5-0-3-0--0--0--0--0-----(x4)--------------------------|

Intro x 12
Chorus x 4  
Intro x 12
Chorus x 4  
Chorus x 8 with heavy distortion
Intro x 8
Chorus x 4
Intro x 4
Chorus x 4
Intro x 4
Chorus x 8 with heavy distortion
pause x 4
Chrous x 8 with heavy distortion


************************************

| /   slide up
| \   slide down
| h   hammer-on
| p   pull-off
| ~   vibrato
| +   harmonic
| x   Mute note
| b   Bend
| pb  Pre-bend
| br  Bend release
| pbr Pre-bend release
| brb Bend release bend

************************************
Tap to rate this tab
 
# A B C D E F G H I J K L M N O P Q R S T U V W X Y Z