Song name
# A B C D E F G H I J K L M N O P Q R S T U V W X Y Z

Rob Zombie - The Ballad Of Resurrection Joe And Rosa Whore tab

          The Ballad of Resurrection Joe and Rosa Whore
          By: Rob Zombie
          Tabbed By: Mike Gagnon
          Tuning(CGCFAD)
          
          Intro
          
          D----------
          A----------
          F----------
          C-10-/9-6~-
          G-10-/9-6~-
          C--8-/7-4~-
          
          Verse
          
          D-------------
          A-------------
          F-------------
          C-6/8-8-8-8-8-
          G-6/8-8-8-8-8-
          C-6/8-8-8-8-8-
          
          Chorus
          
          D----------------------------------------------
          A----------------------------------------------
          F--------------------------------2/6-------2/8-
          C-1/3-3-3--3-3-3/4-4/1-----1-1-1-----1-1-1-----
          G-1/3-3-3--3-3-3/4-4/1-----1-1-1-----1-1-1-----
          C-1/3-3-3--3-3-3/4-4/1-----1-1-1-----1-1-1-----
          
          Thats all folks!!!!!
Tap to rate this tab
# A B C D E F G H I J K L M N O P Q R S T U V W X Y Z