Song name
# A B C D E F G H I J K L M N O P Q R S T U V W X Y Z

Rob Zombie - House Of 1000 Corpses tab

Tuning: Standard
Slide: /
Pickup: p
                      
e|---------|-------------------------------------------------|
B|---------|-------------------------------------------------|
G|---------|-------------------------------------------------|
D|---------|-------------------------------------------------|
A|-2/7p----|--4-44/7-77-4/7/4/7-7/4/7------------------------|
E|------2--|--2-22/5-55-6/5/6/5-5/6/5------------------------|

e|-----------------------------------------------------------|
B|-----------------------------------------------------------|
G|-----------------------------------------------------------|
D|-----------------------------------------------------------|
A|--4-44/7-77-4/7/4/7-7/4/7-4--------------------------------|
E|--2-22/5-55-6/5/6/5-5/6/5-2--------------------------------|


You can also play it like this but it doesent sound as smooth to me:

e|---------|-------------------------------------------------|
B|---------|-------------------------------------------------|
G|---------|-------------------------------------------------|
D|---------|-------------------------------------------------|
A|-2/7p----|--4-44/7-77-4-7-4-7-7-4-7------------------------|
E|------2--|--2-22/5-55-6-5-6-5-5-6-5------------------------|

e|-----------------------------------------------------------|
B|-----------------------------------------------------------|
G|-----------------------------------------------------------|
D|-----------------------------------------------------------|
A|--4-44/7-77-4-7-4-7-7-4-7-4--------------------------------|
E|--2-22/5-55-6-5-6-5-5-6-5-2--------------------------------|
Tap to rate this tab
 
# A B C D E F G H I J K L M N O P Q R S T U V W X Y Z