Song name
# A B C D E F G H I J K L M N O P Q R S T U V W X Y Z

Rob Zombie - Ballad Of Resurrection Joe tab

Song: The Ballad of Resurrection Joe
Artist: Rob Zombie
Tabbed By: BlueInferno_9890@hotmail.com

Tune from low to high strings: C, G, C, F, A, D


BPM=100

Second part of intro: (its too hard for me to figure out the 1st half)
D|-----------|
A|-----------|
F|--10-/9-6--|
C|--10-/9-6--|
G|---8-/7-4--|
C|-----------|

Verse:
D|--------------|
A|--------------|
F|--------------|
C|--6/8-8-8-8-8-|
G|--6/8-8-8-8-8-|
C|--6/8-8-8-8-8-|

Chorus:
D|-----------------------|-----------------------|
A|-----------------------|-----------------------|
F|-----------------------|--------2/6-------2/8--|
C|--1/3-3-3--3-3-3/4-4/1-|--1-1-1-----1-1-1------|
G|--1/3-3-3--3-3-3/4-4/1-|--1-1-1-----1-1-1------|
C|--1/3-3-3--3-3-3/4-4/1-|--1-1-1-----1-1-1------|
                           p.m.--     -----------|
Tap to rate this tab
 
# A B C D E F G H I J K L M N O P Q R S T U V W X Y Z