Song name
# A B C D E F G H I J K L M N O P Q R S T U V W X Y Z

Rob Zombie - Two Lane Blacktop tab

Artist: Rob Zombie
Song: Two Lane Blacktop
Album: Past, Present & Future

-Guitar 1 x Lead
-Guitar 2 x Rhythm

s = slide
p.m. = palm muting

Standard Tuning (EADGBe)

(Watch for the little details :P)

Intro:

Guitar 2

e|----------|----------|----------|-------------|
B|----------|----------|----------|-------------|
G|----------|----------|----------|-------------|
D|--466--6--|--466--6--|--466--6--|--466--6--9--|
A|--466--6--|--466--6--|--466--6--|--466--6--9--|
E|--244--4--|--244--4--|--244--4--|--244--4--7--|

Guitar 1 plays this the 4th time.

e|--------------|
B|--8-11-9-7-9--|
G|--------------|
D|--------------|
A|--------------|
E|--------------|

Then..

Guitar 1 plays this.

e|----------------------------------------------------|
B|----------------------------------------------------|
G|----------------------------------------------------|
D|--4-6--6--6--6-9-6--6--6--6-4-6--6--6--6-9---8---7--|
A|----------------------------------------------------| x2
E|----------------------------------------------------|

And Guitar 2 plays this.

e|----------|----------|----------|-------------|
B|----------|----------|----------|-------------|
G|----------|----------|----------|-------------|
D|--466--6--|--466--6--|--466--6--|--466--6--9--|
A|--466--6--|--466--6--|--466--6--|--466--6--9--| x2
E|--244--4--|--244--4--|--244--4--|--244--4--7--|

Verse (0:20):

Guitar 1

e|---------------------------------------------------------------|
B|---------------------------------------------------------------|
G|---------------------------------------------------------------|
D|--------------------------------------------------------999----|
A|--4s6-6-6-6-6-6-6-6-6-6-6-6-6-6-6-6-6-6-6-6-6-6-6-6-6-6-999----| x2
E|--2s4-4-4-4-4-4-4-4-4-4-4-4-4-4-4-4-4-4-4-4-4-4-4-4-4-4-777----|
        [-----------------------p.m.-----------------------------|

The second time Guitar 2 plays this.

e|---------|
B|---------|
G|---------|
D|--4s6-6--|
A|--4s6-6--|
E|--2s4-4--|

Chorus:

Guitar 1

e|----------------------------------------------------|
B|----------------------------------------------------|
G|----------------------------------------------------|
D|--4-6--6--6--6-9-6--6--6--6-4-6--6--6--6-9---8---7--|
A|----------------------------------------------------|
E|----------------------------------------------------|

e|------------------------------------------|
B|------------------------------------------|
G|------------------------------------------|
D|--4-6--6--6--6-9-6--6--6--6-9-6--6--6--6--|
A|------------------------------------------|
E|------------------------------------------|

Guitar 2

e|----------|----------|----------|-------------|
B|----------|----------|----------|-------------|
G|----------|----------|----------|-------------|
D|--466--6--|--466--6--|--466--6--|--466--6--9--|
A|--466--6--|--466--6--|--466--6--|--466--6--9--|
E|--244--4--|--244--4--|--244--4--|--244--4--7--|

e|----------|----------|----------|-----------|
B|----------|----------|----------|-----------|
G|----------|----------|----------|-----------|
D|--466--6--|--466--6--|--466--6--|--466-6-6--|
A|--466--6--|--466--6--|--466--6--|--466-6-6--|
E|--244--4--|--244--4--|--244--4--|--244-4-4--|

Blacktop Rollin'..

e|----------|----------|----------|-------------|
B|----------|----------|----------|-------------|
G|----------|----------|----------|-------------|
D|--466--6--|--466--6--|--466--6--|--466--6--9--|
A|--466--6--|--466--6--|--466--6--|--466--6--9--|
E|--244--4--|--244--4--|--244--4--|--244--4--7--|

Verse 2 (0:54):

e|--------------------------------------------------------------|
B|--------------------------------------------------------------|
G|--------------------------------------------------------------|
D|--------------------------------------------------------999---|
A|--4s6-6-6-6-6-6-6-6-6-6-6-6-6-6-6-6-6-6-6-6-6-6-6-6-6-6-999---|
E|--2s4-4-4-4-4-4-4-4-4-4-4-4-4-4-4-4-4-4-4-4-4-4-4-4-4-4-777---|
        [-----------------------p.m.----------------------------|

Chorus:

Guitar 1

e|-------------------------------------------------------|
B|-------------------------------------------------------|
G|-------------------------------------------------------|
D|--4-6--6--6--6-9-6--6--6--6-4-6--6--6--6-9---8---7--6--|
A|-------------------------------------------------------|
E|-------------------------------------------------------|

e|------------------------------------------|
B|------------------------------------------|
G|------------------------------------------|
D|--4-6--6--6--6-9-6--6--6--6-9-6--6--6--6--|
A|------------------------------------------|
E|------------------------------------------|

Guitar 2

e|----------|----------|----------|-------------|
B|----------|----------|----------|-------------|
G|----------|----------|----------|-------------|
D|--466--6--|--466--6--|--466--6--|--466--6--9--|
A|--466--6--|--466--6--|--466--6--|--466--6--9--|
E|--244--4--|--244--4--|--244--4--|--244--4--7--|

e|----------|----------|----------|-----------|
B|----------|----------|----------|-----------|
G|----------|----------|----------|-----------|
D|--466--6--|--466--6--|--466--6--|--466-6-6--|
A|--466--6--|--466--6--|--466--6--|--466-6-6--|
E|--244--4--|--244--4--|--244--4--|--244-4-4--|

Break:

e|-----------------------------------------------------------------|
B|-----------------------------------------------------------------|
G|-----------------------------------------------------------------|
D|-----------------------------------------------------------------|
A|--6s8-8-8-8-8-8-8-8-8-8-8-8-8-8-8-6s8-8-8-8-8-8-8-8-8-8-8-8-11---|
E|--4s6-6-6-6-6-6-6-6-6-6-6-6-6-6-6-4s6-6-6-6-6-6-6-6-6-6-6-6-9----|
        [------------p.m.---------]     [--------p.m.--------------|

e|----------------------------------------------------|
B|----------------------------------------------------|
G|----------------------------------------------------|
D|----------------------------------------------------|
A|--6s8-8-8-8-8-8-8-8-8-8-8-8-8-8-8-6s8-8-8-8-8-8-8---|
E|--4s6-6-6-6-6-6-6-6-6-6-6-6-6-6-6-4s6-6-6-6-6-6-6---|
        [------------p.m.---------]     [---p.m.------|

Pre-Solo:

Guitar 1

e|-----------------------------------------------------------------|
B|-----------------------------------------------------------------|
G|-----------------------------------------------------------------|
D|--4-6-6-6-9-6-6-6-4-6-6-6-9-6-6-6-4-6-6-6-9-6-6-6s9-9-9-8--7--6--|
A|-----------------------------------------------------------------|
E|-----------------------------------------------------------------|

e|---------------------------------------------------|
B|---------------------------------------------------|
G|---------------------------------------------------|
D|--4-6-6-6-9-6-6-6-4-6-6-6-9-6-6-6-4-6-6-6-9-6-6-6--|
A|---------------------------------------------------|
E|---------------------------------------------------|

Guitar 2

e|----------|----------|----------|-------------|
B|----------|----------|----------|-------------|
G|----------|----------|----------|-------------|
D|--466--6--|--466--6--|--466--6--|--466--6--9--|
A|--466--6--|--466--6--|--466--6--|--466--6--9--|
E|--244--4--|--244--4--|--244--4--|--244--4--7--|

e|----------|----------|----------|-------|
B|----------|----------|----------|-------|
G|----------|----------|----------|-------|
D|--466--6--|--466--6--|--466--6--|--466--|
A|--466--6--|--466--6--|--466--6--|--466--|
E|--244--4--|--244--4--|--244--4--|--244--|

Blacktop Rollin' ..

e|----------|----------|----------|----------|
B|----------|----------|----------|----------|
G|----------|----------|----------|----------|
D|--466--6--|--466--6--|--466--6--|--466--6--|
A|--466--6--|--466--6--|--466--6--|--466--6--|
E|--244--4--|--244--4--|--244--4--|--244--4--|

Solo:

Guitar 1

e|------------6---6-9-6---6----|
B|--9-7---7-9---9-------9---9--|
G|------8----------------------|
D|-----------------------------|
A|-----------------------------|
E|-----------------------------|

e|--9---7-8---7---8--|
B|----9-----9--------|
G|-------------------|
D|-------------------|
A|-------------------|
E|-------------------|

e|------------6---6-9-6---6----|
B|--9-7---7-9---9-------9---9--|
G|------8----------------------|
D|-----------------------------|
A|-----------------------------|
E|-----------------------------|

e|--9----9------------|
B|----9----9---7-9-9--|
G|-----------8--------|
D|--------------------|
A|--------------------|
E|--------------------|

Guitar 2

e|----------|----------|----------|-------------|
B|----------|----------|----------|-------------|
G|----------|----------|----------|-------------|
D|--466--6--|--466--6--|--466--6--|--466--6--9--|
A|--466--6--|--466--6--|--466--6--|--466--6--9--|
E|--244--4--|--244--4--|--244--4--|--244--4--7--|

Verse 3 (1:54):

e|---------------------------------------------------------------|
B|---------------------------------------------------------------|
G|---------------------------------------------------------------|
D|--------------------------------------------------------999----|
A|--4s6-6-6-6-6-6-6-6-6-6-6-6-6-6-6-6-6-6-6-6-6-6-6-6-6-6-999----| x2
E|--2s4-4-4-4-4-4-4-4-4-4-4-4-4-4-4-4-4-4-4-4-4-4-4-4-4-4-777----|
        [-----------------------p.m.-----------------------------|

The second time Guitar 2 plays this.

e|---------|
B|---------|
G|---------|
D|--4s6-6--|
A|--4s6-6--|
E|--2s4-4--|

Chorus:

Guitar 1

e|-------------------------------------------------------|
B|-------------------------------------------------------|
G|-------------------------------------------------------|
D|--4-6--6--6--6-9-6--6--6--6-4-6--6--6--6-9---8---7--6--|
A|-------------------------------------------------------|
E|-------------------------------------------------------|

e|------------------------------------------|
B|------------------------------------------|
G|------------------------------------------|
D|--4-6--6--6--6-9-6--6--6--6-9-6--6--6--6--|
A|------------------------------------------|
E|------------------------------------------|

Guitar 2

e|----------|----------|----------|-------------|
B|----------|----------|----------|-------------|
G|----------|----------|----------|-------------|
D|--466--6--|--466--6--|--466--6--|--466--6--9--|
A|--466--6--|--466--6--|--466--6--|--466--6--9--|
E|--244--4--|--244--4--|--244--4--|--244--4--7--|

e|----------|----------|----------|--------------|
B|----------|----------|----------|--------------|
G|----------|----------|----------|--------------|
D|--466--6--|--466--6--|--466--6--|--466-6-6--9--|
A|--466--6--|--466--6--|--466--6--|--466-6-6--9--|
E|--244--4--|--244--4--|--244--4--|--244-4-4--7--|

Break:

e|------------------------------------------------------------------|
B|------------------------------------------------------------------|
G|------------------------------------------------------------------|
D|------------------------------------------------------------------|
A|--6s8-8-8-8-8-8-8-8-8-8-8-8-8-8-8-6s8-8-8-8-8-8-8-8-8-8-8-8-11----| x2
E|--4s6-6-6-6-6-6-6-6-6-6-6-6-6-6-6-4s6-6-6-6-6-6-6-6-6-6-6-6-9-----|
        [------------p.m.---------]     [--------p.m.---------------|

Outro:

Guitar 1

e|-----------------------------------------------------------------|
B|-----------------------------------------------------------------|
G|-----------------------------------------------------------------|
D|--4-6-6-6-9-6-6-6-4-6-6-6-9-6-6-6-4-6-6-6-9-6-6-6s9-9-9-8--7--6--|
A|-----------------------------------------------------------------|
E|-----------------------------------------------------------------|

e|---------------------------------------------------------|
B|---------------------------------------------------------|
G|---------------------------------------------------------|
D|--4-6-6-6-9-6-6-6-4-6-6-6-9-6-6-6-4-6-6-6-9-6-6-6s9-9-9--|
A|---------------------------------------------------------|
E|---------------------------------------------------------|

Guitar 2

e|----------|----------|----------|----------|
B|----------|----------|----------|----------|
G|----------|----------|----------|----------|
D|--466--6--|--466--6--|--466--6--|--466--6--|
A|--466--6--|--466--6--|--466--6--|--466--6--| x2
E|--244--4--|--244--4--|--244--4--|--244--4--|

The End :D

---------------------

Also, if you don't have someone to play Guitar 2, then you could play the Intro, Chorus 
Outro like this:

e|-----------------------------------------------------|
B|-----------------------------------------------------|
G|-----------------------------------------------------|
D|--4-6--6--6--6-9-6--6--6--6-4--6--6--6--6-9---8---7--|
A|--4-6--6--6--6-9-6--6--6--6-4--6--6--6--6-9---8---7--|
E|--2-4--4--4--4-7-4--4--4--4-2--4--4--4--4-7---6---5--|

e|------------------------------------------------|
B|------------------------------------------------|
G|------------------------------------------------|
D|--4-6--6--6--6-9-6--6--6--6-4-6--6--6--6-6-6-6--|
A|--4-6--6--6--6-9-6--6--6--6-4-6--6--6--6-6-6-6--|
E|--2-4--4--4--4-7-4--4--4--4-2-4--4--4--4-4-4-4--|

And..

e|--------------------------------------------------------|
B|--------------------------------------------------------|
G|--------------------------------------------------------|
D|--4-6--6--6--6-9-6--6--6--6-4--6--6--6--6-9---8---7--6--|
A|--4-6--6--6--6-9-6--6--6--6-4--6--6--6--6-9---8---7--6--|
E|--2-4--4--4--4-7-4--4--4--4-2--4--4--4--4-7---6---5--4--|

e|------------------------------------------------|
B|------------------------------------------------|
G|------------------------------------------------|
D|--4-6--6--6--6-9-6--6--6--6-4-6--6--6--6-6-6-6--|
A|--4-6--6--6--6-9-6--6--6--6-4-6--6--6--6-6-6-6--|
E|--2-4--4--4--4-7-4--4--4--4-2-4--4--4--4-4-4-4--|

Still works :)
Tap to rate this tab
# A B C D E F G H I J K L M N O P Q R S T U V W X Y Z