Song name
# A B C D E F G H I J K L M N O P Q R S T U V W X Y Z

Rob Zombie - Never Gonna Stop Me Remix tab

This is stiffius maximus. If your wondering i wrote the original remix tab also. i am
rewriting this to gain credit for it and to fix some problems. this tab is in drop c

intro

(0:00-0:07)
|------------------------------------------------|
|------------------------------------------------|
|------------------------------------------------|
|------------------------------7-----------------|
|------------------------------7-----------------|
|--000-000-000-000-000-000-000-7-----------------|

(0:07-0:23)
|------------------------------------------------|
|------------------------------------------------|
|------------------------------------------------|
|--------------------------------------------2---|  x2
|--------------------------------------------2---|
|--0010-0010-0010-0010-0010-0010-0010-0010---2---|


(0:23-0:38)
|-00-10-00-12-00-8-00-8-00-8/10-----00-10-00-12-00-8-00-8-00-8\7----|
|-------------------------------------------------------------------|
|-------------------------------------------------------------------|  x2
|-------------------------------------------------------------------| 
|-------------------------------------------------------------------|
|-------------------------------------------------------------------|


verse

(0:38-0:54)
|------------10p0-10p0------------------10p0-10p0-------------------| 
|-------------------------------------------------------------------|
|-------------------------------------------------------------------|
|-------------------------------------------------------------------| 
|-------------------------------------------------------------------|
|--000---000------------000---000---000-----------000---------------|

interlude

(0:54-1:09)      guitar 1
|----10-12-888/10-------------------------------------| 
|-----------------------------------------------------|
|-----------------------------------------------------|------|
|-----------------------------------------------------|      |
|-----------------------------------------------------|      |
|-----------------------------------------------------|      |
                                                             |repeat at
(0:54-1:09)      guitar 2                                    | (1:00)
|-------------------10p0-10p0-----10p0-10p0-----------|      |
|-----------------------------------------------------|      |
|-----------------------------------------------------|      |
|-----------------------------------------------------|------| 
|-----------------------------------------------------|
|-000----000----000-----------000---------------------|

part between interlude and verse
(1:09-1:32) 
|------------------------------------------------|     
|------------------------------------------------|
|------------------------------------------------|
|------------------------------------------------|
|------------------------------------------------| 
|--0010-0010-0010-0010-0010-0010-0010-0010---2---| 


guitar 2 will play the above thru till 1:32 and guitar 1 will play the below at 1:17 and play it twice

|-00-10-00-12-00-8-00-8-00-8/10-----00-10-00-12-00-8-00-8-00-8\7----|
|-------------------------------------------------------------------|
|-------------------------------------------------------------------|
|-------------------------------------------------------------------| 
|-------------------------------------------------------------------|
|-------------------------------------------------------------------|

verse 2

(1:32-1:47)
|------------10p0-10p0------------------10p0-10p0-----------------------| 
|-----------------------------------------------------------------------|
|-----------------------------------------------------------------------|
|-----------------------------------------------------------------------| 
|-----------------------------------------------------------------------|
|--000---000-----------000---000---000------------000-------------------|

interlude 2

(1:47-2:02)      guitar 1
|----10-12-888/10---------------------------------------| 
|-----------------------------------------------------|
|-----------------------------------------------------|------|
|-----------------------------------------------------|      |
|-----------------------------------------------------|      |
|-----------------------------------------------------|      |
                                                             |repeat at
(1:47-2:02)      guitar 2                                    | (1:55)
|-------------------10p0-10p0---10p0-10p0-------------|      |
|-----------------------------------------------------|      |
|-----------------------------------------------------|      |
|-----------------------------------------------------|------| 
|-----------------------------------------------------|
|-000----000----000---------000-----------------------|

solo
(2:02-2:33)
|-10-10-10-14b-12-12-12-14-12-10-12-12-12-14-12-10-10-18b-18-19b--18-19b-|
|------------------------------------------------------------------------|
|------------------------------------------------------------------------|
|------------------------------------------------------------------------|
|------------------------------------------------------------------------|
|------------------------------------------------------------------------|

|-18-19b-19b-19b-18-16---19b-19-20b-20b-20b-20b-19-14--8h9p8h9p8h9p8h9p8-|
|------------------------------------------------------------------------|
|------------------------------------------------------------------------|
|------------------------------------------------------------------------|
|------------------------------------------------------------------------|
|------------------------------------------------------------------------|

|-10h11p10h11p10h11p10h11p10h11-11-10-151515-7--12b-12h13p12h13p12h13p12-|
|------------------------------------------------------------------------|
|------------------------------------------------------------------------|
|------------------------------------------------------------------------|
|------------------------------------------------------------------------|
|------------------------------------------------------------------------|

|--23-24-23--23-24-23----------------------------------------------------|
|------------------------------------------------------------------------|
|------------------------------------------------------------------------|
|------------------------------------------------------------------------|
|------------------------------------------------------------------------|
|------------------------------------------------------------------------|

part between solo and verse
(2:33-2:49)
|------------------------------------------------|
|------------------------------------------------|
|------------------------------------------------|
|------------------------------7-----------------| x2
|------------------------------7-----------------|
|--000-000-000-000-000-000-000-7-----------------|

(2:49-3:04)
|------------------------------------------------|      
|------------------------------------------------|
|------------------------------------------------|
|------------------------------------------------|
|------------------------------------------------| 
|--0010-0010-0010-0010-0010-0010-0010-0010---2---| 

guitar 2 will play the above thru till 3:04 and guitar 1 will play the below at 2:49 and play it twice

|-00-10-00-12-00-8-00-8-00-8/10-----00-10-00-12-00-8-00-8-00-8\7----|
|-------------------------------------------------------------------|
|-------------------------------------------------------------------|
|-------------------------------------------------------------------| 
|-------------------------------------------------------------------|
|-------------------------------------------------------------------|

verse 3
(3:04-3:19)
|------------10p0-10p0------------------10p0-10p0-----------------------| 
|-----------------------------------------------------------------------|
|-----------------------------------------------------------------------|
|-----------------------------------------------------------------------| 
|-----------------------------------------------------------------------|
|--000---000----------000---000------000----------000-------------------|

interlude 3

(3:19-3:34)      guitar 1
|----10-12-888/10-------------------------------------| 
|-----------------------------------------------------|
|-----------------------------------------------------|------|
|-----------------------------------------------------|      |
|-----------------------------------------------------|      |
|-----------------------------------------------------|      |
                                                             |repeat at
(3:19-3:34)      guitar 2                                    | (3:27)
|-------------------10p0-10p0-----10p0-10p0-----------|      |
|-----------------------------------------------------|      |
|-----------------------------------------------------|      |
|-----------------------------------------------------|------| 
|-----------------------------------------------------|
|-000----000----000-----------000---------------------|
Tap to rate this tab
# A B C D E F G H I J K L M N O P Q R S T U V W X Y Z