Song name
# A B C D E F G H I J K L M N O P Q R S T U V W X Y Z

Rob Zombie - 17 Year Locust tab

Help us improve GuitareTab! Take a short survey!
This is my first ever guitar tab, its pretty close if not perfect.

e|----------------------------------------------|
B|----------------8-7---------------------------|
G|---6--6-4-6-4-6-------------------------------|
D|----------------------------------------------|
A|----------------------------------------------|
E|----------------------------------------------|
                                                  Play Whole thing Twice!
 
e|----------------------------------------------|
B|----------------8-7---5h6-5-------------------|
G|---6--6-4-6-4-6-----6-------6-----------------|
D|----------------------------------------------|
A|----------------------------------------------|
E|----------------------------------------------|


h  hammer-on
Related for 17 Year Locust tab