Song name
# A B C D E F G H I J K L M N O P Q R S T U V W X Y Z

Rob Zombie - Let It All Bleed Out tab

Rob Zombie
Let it all Bleed out
From the album "Educated Horses"
Tabbed by javi_twiggy

tuning DADGBE
 p = palm muted
 / = slide


verses:
e|-------------------------------------------------------------|
b|-------------------------------------------------------------|
g|----------------------------------------------5-5-5-3-5-6----|
d|--0-0-0-0---1-0--0---0-0-0---0---0-0-0---0----5-5-5-3-5-6----|
a|--0-0-0-0---1-0--0---0-0-0---0---0-0-0---0-------------------|
d|--0-0-0-0---1-0--0---0-0-0---0---0-0-0---0-------------------|
    p p p p            p p p       p p p

break:
e|-------------------------------|
b|-------------------------------|
g|-------------------------------|
d|--0-6---5-3---0-6---5-3---0----|
a|--0-6---5-3---0-6---5-3---0----|
d|--0-6---5-3---0-6---5-3---0----|


chorus guitar 1:
e|--------------------------------------------------------------|
b|--------------------------------------------------------------|
g|------8/108----13-12-13-12--------8/108----13-12-13-/15-------|
d|--10---------------------------10-----------------------------|
a|--------------------------------------------------------------|
d|--------------------------------------------------------------|

chorus guitar 2:
e|--------------------------------------------------|
b|--------------------------------------------------|
g|--------------------------------------------------|
d|--5--5--5-5-/6-6--6--6---0--0--0-0---3-3--3--3----|
a|--5--5--5-5-/6-6--6--6---0--0--0-0---3-3--3--3----|
d|--3--3--3-3-/6-6--6--6---0--0--0-0---3-3--3--3----|


the coolest song on the new album
try yourself to figure out the solo between verses
me cago en dios!
Tap to rate this tab
# A B C D E F G H I J K L M N O P Q R S T U V W X Y Z