Song name
# A B C D E F G H I J K L M N O P Q R S T U V W X Y Z

Rob Zombie - Scorpion Sleeps tab

Help us improve GuitareTab! Take a short survey!
Tuning: standard

Song: The Scorpion Sleeps
Artist: Rob Zombie
Album: Educated Horses
Tabbed by: Tyler Marley

This is an awesome song off of Educated Horses.  If you don't have Educated Horses what 
you doing here? Go get it right now!  Good Luck!

Intro
e|--------------------------------------|
b|--------------------------------------|
g|-8-7-3-5--8-10-8-7--8-7-3-5--5--8-7-8-|
d|-8-7-3-5--8-10-8-7--8-7-3-5--5--8-7-8-|
a|-6-5-1-3--6-8--6-5--6-5-1-3--3--6-5-6-|
e|--------------------------------------|

Chorus                             Then...                          2nd time
e|--------------------------------|---------------------------------|--------|
b|--------------------------------|---------------------------------|--------|
g|-3-5-5--5-8-8--3-5-5--3-5-5-5-5-|---5---5---5---------------------|--------|
d|-3-5-5--5-8-8--3-5-5--3-5-5-5-5-|---5---5---5---------13-13b(1/2)-|-13-----|b(1)
a|-1-3-3--3-6-6--1-3-3--1-3-3-3-3-|---3---3---3---15-13-------------|--------|
e|--------------------------------|---------------------------------|--------|
                                   (keep picking the 13 during bend)
                                   "alright, said it's alright..."
Verse
e|--------------|
b|--------------|
g|-3-5-5--x-x-x-|
d|-3-5-5--x-x-x-|
a|-1-3-3--x-x-x-|
e|--------------|

b() bend to number of steps indicated in parenthesis
x fret hand mute

That's it! Please rate.
Related for Scorpion Sleeps tab