Song name
# A B C D E F G H I J K L M N O P Q R S T U V W X Y Z

Rob Zombie - Sawdust In The Blood tab

Educated Horses Album

 
     F  A   F  A  E  A  E  A  D
e|---------------------------------------|
B|---------------------------------------|
G|--10-----10-----9-----9-----7----------|
D|------7------7-----7-----7-------------|
A|---------------------------------------|
E|---------------------------------------| X2

    Eb G  Eb G  D  G  D  G  C
e|---------------------------------------|
B|---------------------------------------|
G|--8-----8-----7-----7-----5------------|
D|-----5-----5-----5-----5---------------|
A|---------------------------------------|
E|---------------------------------------| X2


     F  A   F  A  E  A  E  A  D             F   A  F   A  G  A  G  A  A
e|--------------------------------------|----------------------------------|
B|--------------------------------------|-----------------8-----8-----10---|
G|--10-----10-----9-----9-----7---------|---10-----10----------------------|
D|------7------7-----7-----7------------|-------7------7-----7-----7-------|
A|--------------------------------------|----------------------------------|
E|--------------------------------------|----------------------------------|


    Eb G  Eb G  D  G  D  G  C               Eb G  Eb G  F  G  F  G  G
e|--------------------------------------|----------------------------------|
B|--------------------------------------|---------------6-----6-----8------|
G|--8-----8-----7-----7-----5-----------|---8-----8------------------------|
D|-----5-----5-----5-----5--------------|------5-----5-----5-----5---------|
A|--------------------------------------|----------------------------------|
E|--------------------------------------|----------------------------------|


    F  A   F  A  E  A  E  A  D
e|---------------------------------------|
B|---------------------------------------|
G|--10-----10-----9-----9-----7----------|
D|------7------7-----7-----7-------------|
A|---------------------------------------|
E|---------------------------------------| X2

    Eb G  Eb G  D  G  D  G  C
e|---------------------------------------|
B|---------------------------------------|
G|--8-----8-----7-----7-----5------------|
D|-----5-----5-----5-----5--5------------|
A|---------------------------------------|
E|---------------------------------------| X2



| /  slide up
| \  slide down
| h  hammer-on
| p  pull-off
| ~  vibrato
| +  harmonic
| x  Mute note
Tap to rate this tab
 
# A B C D E F G H I J K L M N O P Q R S T U V W X Y Z