Song name
# A B C D E F G H I J K L M N O P Q R S T U V W X Y Z

Rob Zombie - Death Of It All tab

tuning: CGCFAD

Song: Death of it All
Artist: Rob Zombie
Album: Educated Horses
Tabbed by: Tyler Marley

Here it is.  Sorry, I don't have it all but I have the main parts.  

Intro: Guitar 1 (let ring)
D|-8-----8-----7-----7-----|-8-----8-----7-----7-----|---------------|
A|---0-----0-----0-----0---|---0-----0-----0-----0---|---8------8----|
F|-----9-----9-----9-----9-|-----9-----9-----9-----9-|-----11-----11-|
C|-------------------------|-------------------------|-9------9------|
G|-------------------------|-------------------------|---------------|
C|-------------------------|-------------------------|---------------|

                                Ending 1st time    Ending 2nd time
D|-------------|---------------|-------------|        D|-------------|
A|---7-----7---|---8------8----|---7-----7---|        A|---7---------|
F|-----9-----9-|-----11-----11-|-----9-----9-|        F|-----9---7---|
C|-9-----9-----|-9------9------|-9-----9-----|(2X)    C|-9-----9---9-|
G|-------------|---------------|-------------|        G|-------------|
C|-------------|---------------|-------------|        C|-------------|

(2X)
D|--------------------------|-------------0-------0---|(where outro ends)
A|-7-------7---8--------8---|-7-------7---------------|
F|---0---0---0---0---0----0-|---0---0---0---0---0---0-|
C|--------------------------|-------------------------|
G|-----9-----------9--------|-----9-----------9-------|
C|--------------------------|-------------------------|

(2X)
D|-8-----8-----7-----7-----|---------------|-------------|
A|---0-----0-----0-----0---|---8------8----|---7-----7---|
F|-----9-----9-----9-----9-|-----11-----11-|-----9-----9-|
C|-------------------------|-9------9------|-9-----9-----|
G|-------------------------|---------------|-------------|
C|-------------------------|---------------|-------------|

(3X)                            Ending of Intro:
D|-0-----0-----0-------0---|    D|-0-----0----------|
A|---6-----6-----6-------6-|    A|---6-----6--------|
F|-----9-----9-----9-------|    F|-----9-----9------|
C|-------------------8-----|    C|-------------8----|
G|-------------------------|    G|------------------|
C|-------------------------|    C|------------------|

Main Riff: Guitar 1 (3X)         Main Riff: Guitar 2 (3X)  Then...
D|----12-12-14-15---|              D|---------------|      D|--------------|
A|-12---------------|              A|---------------|      A|--------------|
F|------------------|              F|---9-9-11-12---|      F|---9-9----9-9-|
C|------------------|              C|-9-9-9-11-12---|      C|-9-9-9--9-9-9-|
G|------------------|              G|-9-7-7--9-10---|      G|-9-7-7--9-7-7-|
C|------------------|              C|-9-------------|      C|-9------9-----|


Verse: sorry, don't have


Chorus: Main Riff, Guitars 1 and 2


Interlude: Main Riff, Guitar 2 (with orchestra)


Verse


Chorus


Interlude


Verse


Chorus


Outro: Same as intro (marked where to stop)


There it is.

ZOMBIE RULES!
Tap to rate this tab
# A B C D E F G H I J K L M N O P Q R S T U V W X Y Z