Song name
# A B C D E F G H I J K L M N O P Q R S T U V W X Y Z

Rob Zombie - I Feel So Numb tab

Rob Zombie - I Feel So Numb
Tuning: Standard (E A D G)

Verse
G|------------------|------------------||
D|------------------|------------------||
A|------------------|------------------||
E|-88-8-6---8--6--8-|-88-8-6---8--6--8-||

                    
G|------------------|------------------||
D|------------------|------------------||
A|------------------|------------------||
E|-88-8-6---8--6--8-|-4-4-4-4---4-6-7--||

  
   
G|------------------|------------------||
D|------------------|------------------||
A|------------------|------------------||
E|-4-4-4-4---4-6-8~~|~~~~~~~~~~~~~-----||

Chorus
G|------------------||
D|------------------||Repeate
A|------------------||
E|------------88----||

Bridge
G|------------------||
D|------------------||
A|------------------||
E|-88-88-88-87\-6---||


G|------------------|------------------||
D|------------------|------------------||
A|------------------|------------------||
E|-88-8-6---8--6--8-|-88-8-6---8--6--8-||


G|------------------|------------------||
D|------------------|------------------||
A|------------------|---9---7---5------||
E|-88-8-6---8--6--8-|---------------8--||
Tap to rate this tab
 
# A B C D E F G H I J K L M N O P Q R S T U V W X Y Z