Song name
# A B C D E F G H I J K L M N O P Q R S T U V W X Y Z

Rob - Silent Night tab

This my own arrangement. The 3,4,5 is part of G chord on the 3rd fret. If your new to 
tabs it may take a few times to get this down, but this is a very pretty arrangement that 
can be play'd solo on your guitar.

  G                                   D            G
--------------------------------------5----5-------3---3---------------------|
--3----5----3-------3----5----3-------7--------7---3-------3-----------------|
--4-------------4---4--------------4--7------------4-------------------------|
--5-----------------5--------------------------------------------------------|
-----------------------------------------------------------------------------|
-----------------------------------------------------------------------------|

  C                   G          PLAY G
----------------------------------3------|Repeat this section once
--8-------8-----------3---5---3---3------|
--9---9-------11---9--4-----------4------|
-10-------------------5-----------5------|
-----------------------------------------|
-----------------------------------------|

 D                           G    SLIDE TO 7
-----------------------------3----5----7-|
-10----10---------10---------3-----------|
-11---------13---------11----4-----------|
-12--------------------------------------|
-----------------------------------------|
-----------------------------------------|

  G             D           PLAY G Chord
--3--------------------------3-----------|
--3----3--------3------------3-----------|
--4--------4---------5---2---4-----------|
-----------------------------5-----------|
-----------------------------------------|
-----------------------------------------|

I hope you all enjoy this, Let me know, this is my first post
Tap to rate this tab
# A B C D E F G H I J K L M N O P Q R S T U V W X Y Z