Song name
# A B C D E F G H I J K L M N O P Q R S T U V W X Y Z

Robbers On High Street - Japanese Girls tab

-------------------------------------------------------------------------------
			     JAPANESE GIRLS - Robbers on High Street
-------------------------------------------------------------------------------
Band site: http://www.robbersonhighstreet.com/
Tabbed by: Jumpeplowski
Email: jumpeplowski@hotmail.com

Tuning: Standard

INTRO/VERSE
e|--------------------------------|
B|--------------------------------|
G|--------------------------------|x8
D|4-4-4---2-2-2---2-2-2---4-4-4---|
A|2-2-2-2-0-0-0---0-0-0-0-2-2-2---|
E|------2---------------0---------|

CHORUS
e|----------------------------------------------------------------|
B|----------------------------------------------------------------|
G|4-4-4-4-4-4-4-4-4-4-4-4-4-4-4-4-4-4-4-4-4-4-4-4-4-4-4-4-4-4-4-4-|x2
D|4-4-4-4-4-4-4-4-4-4-2-2-1-1-1-1-1-1-1-1-2-2-2-2-0-0-0-0-1-1-1-1-|
A|2-2-2-2-2-2-2-2-2-2-2-2-2-2-2-2-2-2-2-2-2-2-2-2-0-0-0-0-2-2-2-2-|
E|----------------------------------------------------------------|

VERSE
e|--------------------------------|
B|--------------------------------|
G|--------------------------------|x4
D|4-4-4---2-2-2---2-2-2---4-4-4---|
A|2-2-2-2-0-0-0---0-0-0-0-2-2-2---|
E|------2---------------0---------|

CHORUS
e|----------------------------------------------------------------|
B|----------------------------------------------------------------|
G|4-4-4-4-4-4-4-4-4-4-4-4-4-4-4-4-4-4-4-4-4-4-4-4-4-4-4-4-4-4-4-4-|x2
D|4-4-4-4-4-4-4-4-4-4-2-2-1-1-1-1-1-1-1-1-2-2-2-2-0-0-0-0-1-1-1-1-|
A|2-2-2-2-2-2-2-2-2-2-2-2-2-2-2-2-2-2-2-2-2-2-2-2-0-0-0-0-2-2-2-2-|
E|----------------------------------------------------------------|

BRIDGE 1
e|----------------------|    e|--------------|
B|--------------4-------|    B|--------------|
G|--------------4-------|x3  G|--------------|x1
D|----97-----97-4-------|    D|----97-----97-|
A|5------7--------------|    A|5------7------|
E|----------------------|    E|--------------|

CHORUS
e|----------------------------------------------------------------|
B|----------------------------------------------------------------|
G|4-4-4-4-4-4-4-4-4-4-4-4-4-4-4-4-4-4-4-4-4-4-4-4-4-4-4-4-4-4-4-4-|x2
D|4-4-4-4-4-4-4-4-4-4-2-2-1-1-1-1-1-1-1-1-2-2-2-2-0-0-0-0-1-1-1-1-|
A|2-2-2-2-2-2-2-2-2-2-2-2-2-2-2-2-2-2-2-2-2-2-2-2-0-0-0-0-2-2-2-2-|
E|----------------------------------------------------------------|

BRIDGE 2
e|------------------------------|
B|------------------------------|
G|----4-2-----2-1---------------|x4
D|--4-------2-------2-2-4-1-1-1-|
A|2-----------------------------|
E|------------------------------|


OUTRO
e|--------------------------------|
B|--------------------------------|
G|--------------------------------|x2
D|4-4-4---2-2-2---2-2-2---4-4-4---|
A|2-2-2-2-0-0-0---0-0-0-0-2-2-2---|
E|------2---------------0---------|

===============================================================================
Tap to rate this tab
 
# A B C D E F G H I J K L M N O P Q R S T U V W X Y Z