Song name
# A B C D E F G H I J K L M N O P Q R S T U V W X Y Z

Robbi Robb - In Time tab

Robbi Robb: www.robbirobb.com
Tabbed by: Marcus Wright
Song Reference: http://www.box.net/shared/aupt0hf2bk
Tuning: Standard Tuning

e|17----19------------------------17b19b17~~~~~15p14h15~~~~14h15p14h15p14h15p-|
B|----------17~~~~~19\15------------------------------------------------------|
G|---------------------14~~~~-------------------------------------------------|
D|----------------------------------------------------------------------------|
A|----------------------------------------------------------------------------|
E|----------------------------------------------------------------------------|

e|14~~\12h14~~-------------------------------------------------------------14-|
B|------------14h15p14h15~~---------------------------------------14h15h17----|
G|-------------------------12p11---------------------11-12/14-14~~------------|
D|-------------------------------12~~~\0--------4/12--------------------------|
A|----------------------------------------------------------------------------|
E|----------------------------------------------------------------------------|

e|h17p14h17p14h17p14---------14h17p14h17p14h17p14----------14h17p14h17p14h17p-|
B|------------------14h15h17----------------------14h15h17--------------------|
G|----------------------------------------------------------------------------|
D|----------------------------------------------------------------------------|
A|----------------------------------------------------------------------------|
E|----------------------------------------------------------------------------|
                                                    At 0:42 into the song....
e|14/22~~22b24~b22-22b25b22~~~~\0---------------------------------------------|
B|----------------------------------------------------------------------------|
G|----------------------------------------------------------------19-19-19-19-|
D|----------------------------------------------------------------------------|
A|----------------------------------------------------------------------------|
E|----------------------------------------------------------------------------|

e|---------------------------------------------------------------------------|
B|19-------------19---------19-------------19--------------19--------19------|
G|-19-19-19-19-19--19-19-19--19-19-19-19-19--19-19-19-19-19--19-19-19--19-19-|
D|---------------------------------------------------------------------------|
A|---------------------------------------------------------------------------|
E|---------------------------------------------------------------------------|

e|--------------------------------------------------------------15-17/22~~~--|
B|--------19--------------19--------19--------------19~~\0----19-------------|
G|19-19-19--19-19-19-19-19--19-19-19--19-19-19-19-19------0/19---------------|
D|---------------------------------------------------------------------------|
A|---------------------------------------------------------------------------|
E|---------------------------------------------------------------------------|

| /  slide up
| \  slide down
| h  hammer-on
| p  pull-off
| ~  vibrato
| +  harmonic
| x  Mute note
| b  bend
============================================================================
Tap to rate this tab
 
# A B C D E F G H I J K L M N O P Q R S T U V W X Y Z