Song name
# A B C D E F G H I J K L M N O P Q R S T U V W X Y Z

Robbie Seay Band - Song Of Hope Come Down tab

Help us improve GuitareTab! Take a short survey!
Song:Song of Hope (Heaven Come Down)
Artist:Robbie Seay Band
Album:Give Yourself Away
Copyright:2007 Sparrow Records
Standard Tuning

Intro:  (0:04)
e|--------------------------------------------------|
B|--------------------------------------------------|
G|15-15-16-16-15-15-16-16-15-15-16-16-16-15-13-13-13|
D|--------------------------------------------------|
A|--------------------------------------------------|
E|--------------------------------------------------|

e|-----------------------------------|
B|-----------------------------------|
G|16-18-20-18-16-21-21-21-21-18-18-18|
D|-----------------------------------|
A|-----------------------------------|
E|-----------------------------------| x2

Verse 1:  (0:22)
Mostly it sounds like they just play bass
and chords for the fist verse.

Chorus:  (00:52)
e|--------------------------------------------------|
B|--------------------------------------------------|
G|15-15-16-16-15-15-16-16-15-15-16-16-16-15-13-13-13|
D|--------------------------------------------------|
A|--------------------------------------------------|
E|--------------------------------------------------|

e|-----------------------------------|
B|-----------------------------------|
G|16-18-20-18-16-21-21-21-21-18-18-18|
D|-----------------------------------|
A|-----------------------------------|
E|-----------------------------------| x2

Post-chorus:  (1:09)
e|--------------------------------------------------|
B|--------------------------------------------------|
G|15-15-16-16-15-15-16-16-15-15-16-16-16-15-13-13-13|
D|--------------------------------------------------|
A|--------------------------------------------------|
E|--------------------------------------------------|

e|-----------------------------------|
B|-----------------------------------|
G|16-18-20-18-16-21-21-21-21-20-18-16|
D|-----------------------------------|
A|-----------------------------------|
E|-----------------------------------|

Verse 2: (1:19)
e|-----------------------------------------|
B|-----------------------------------------|   This verse is just
G|-----16--15-16-15-13--------16------16-13|   background stuff so
D|11-13-----------------11-13----11-13-----|   you have to listen closely.
A|-----------------------------------------|
E|-----------------------------------------|

Chorus x2:  (1:49)

Instrumental:  (2:25)
e|--------------------------|
B|--------------19----------|
G|20-13--18-15----16--15--16|
D|----------------------16--|
A|--------------------------|
E|--------------------------|   The instrumental and bridge
                                sound like piano but I tabbed
Bridge:  (2:31)                 it anyways.
e|--------------------------|
B|--------------19----------|
G|20-13--18-15----16--15--16|
D|----------------------16--|
A|--------------------------|
E|--------------------------| x3

Chorus:  (2:56)
For this chorus I didn't hear any tab being played.

Chorus x2:  (3:15)

Post-chorus x2:  (3:45)

Ending: (4:02)
e|--------------14--|
B|12-11--11-12------|
G|-----11-----11--11|
D|------------------|
A|------------------|
E|------------------| x19


This tab is really easy. I'm not sure about the 2nd vers but I think everything else is good.
Feel free to add your comment or correction and
please rate.
Related for Song Of Hope Come Down tab