Song name
# A B C D E F G H I J K L M N O P Q R S T U V W X Y Z

Robbie Williams - Singing For The Lonely tab

Tabbed by: Glenn-Thore
Mail:gtbf_89@hotmail.com

|----------8----------------------|
|-6-9--6-9---9--9-9-9-9-7--6-7-9-7|
|---------------------------------|
|---------------------------------|
|---------------------------------|
|---------------------------------|
|---------------------------------|

|-----------------------|
|-6-9--6-6-6--------6---|
|------------8--6-8---8-|
|-----------------------|
|-----------------------|
|-----------------------|
Tap to rate this tab
# A B C D E F G H I J K L M N O P Q R S T U V W X Y Z