Guitaretab - guitar tabs
Song name
# A B C D E F G H I J K L M N O P Q R S T U V W X Y Z

Robbie Williams - Strong tab

------------------------------------------------------------
                Strong  -  Robbie Williams
------------------------------------------------------------
Use Capo on 1st!

[Intro]

     D                      G                    
E||--2-------------------|----------------------|
B||--3----------------3--|----------------3-----|
G||--2----------2/-4-----|--0----------0-----0--|
D||--0-------------------|--0-------------------|
A||----------------------|----------------------|
E||----------------------|----------------------|


  Em                  A                         
-------------------|-----------------5---------|
-------------------|--2--------3--5b----5r-3---|
-------------------|--2---2/4----------------4-|
--2----------------|--2------------------------|
-------------------|--0------------------------|
-------------------|---------------------------|


  D                     E                   
---------------------|---------------------|
--3--------5b---5b---|--5r---3--5----------|
---------------------|---------------------|
---------------------|---------------------|
---------------------|---------------------|
---------------------|---------------------|


  G                      A7sus4             
--3----2----0---------|--5----------------||
--3----3-------3------|--3----------------||
--0----2--------------|--0----------------||
--0----0--------------|--2----------------||
----------------------|--0----------------||
----------------------|-------------------||



D
My breath smells of a thousand fags 
       G
And when I'm drunk I dance like me Dad
      Em7                         A
I've started to dress a bit like him
      D
And early morning when I wake up
   G
I look like Kiss but without the make-up
     Em7                                   A
And that's a good line to take it to the bridge


Em7                                   Bm
And you know, and you know 'cause my life's a mess
Em7                         A7sus4         A7
And I'm trying to grow, so before I'm old I'll confess

D     (D6) D        E               G             A    (A4 A Aadd9 A)
You think that I'm strong, you're wrong, you're wrong
D     (D6) D        E       G  (D/F#   Em  Em7 )  A7sus4   A7
I'll sing my      song, my song,              my song


D                                G
My bed's full of takeaways, and fantasies of easy lays
Em7                            A
The pause button's broke on my video.
    D                                  G
And is this real? 'Cause I feel fake, Oprah Winfrey, Ricki Lake
Em7                             A
Teach me things I don't need to know

[ Tab from: http://www.guitaretab.com/r/robbie-williams/118606.html ]
Em7                                   Bm
And you know, and you know 'cause my life's a mess
Em7                         A7sus4         A7
And I'm trying to grow, so before I'm old I'll confess

D     (D6) D        E               G             A    (A4 A Aadd9 A)
You think that I'm strong, you're wrong, you're wrong
D     (D6) D        E       G  (D/F#   Em  Em7 )  A7sus4   A7
I'll sing my      song, my song,              my song



[Interlude]
     C
If I did it all again I'd be a nun
     Bm
The rain was never cold when I was young
           Em                 (Bass: E,F#,G,H)
I'm still young, we're still young
C
Life's too short to be afraid
G/H   D   G  D/F#    D/A  ... (Solo)
Step inside the sun


[Solo]

     D                      E                 
E||--2-------------------|-------------------|
B||--3----------------3--|-------------------|
G||--2----------2/-4-----|--1----------------|
D||--0-------------------|-------------------|
A||----------------------|-------------------|
E||----------------------|-------------------|


  G                      A                      
--3-------------------|------------------------|
--3----------------3--|------------------------|
--0----------2/-4-----|--2------------4p2p0----|
--0-------------------|---------------------2--|
----------------------|------------------------|
----------------------|------------------------|


  D                         E                      
----------------5--------|--5b-5---------5--------|
----------3--5b----5r-3--|----------5b------5r-3--|
-----2/4-----------------|------------------------|
-------------------------|------------------------|
-------------------------|------------------------|
-------------------------|------------------------|


  G     D/F#    Em      Em7      
--------------------17----------|
------------15--17b-----17r-15--|
-----14/16----------------------|
--------------------------------|
--------------------------------|
--------------------------------|


  A7sus4        A7                 Em7    ... (Bridge)             
--------------------17----------|--------------------||
--17----17--15--17b-----17r-15--|--------------------||
--------------------------------|--16----------------||
--------------------------------|--------------------||
--------------------------------|--------------------||
--------------------------------|--------------------||


Em7                                   Bm
And you know, and you know 'cause my life's a mess
Em7                 A7sus4    A7sus4    A7
And I'm trying to grow,   ah---- 


Outro: (repeat 4 to fade)
D     (D6) D        E               G             A    (A4 A Aadd9 A)
You think that I'm strong, you're wrong, you're wrong
D     (D6) D        E       G  (D/F#   Em  Em7 )  A7sus4   A7
I'll sing my      song, my song,              my song


(sing on outro)
Life's too short to be afraid, so take a pill to numb the pain
You don't have to take the blame
Related for Strong tab