Song name
# A B C D E F G H I J K L M N O P Q R S T U V W X Y Z

Robbie Williams - Better Man chords

Highlighted       Show chord diagrams
Intro                                  
e-----------3-------3-------3---------3-------3-----3---------3------3----------------3-------|
b-------0-------0--------0---------1-------1-----1--------0------0----------0---------1-------|
g---0-------0---------0---------0------0------0--------0------0----------0-----0------0-------| G
d---------------------------------------------------------------------------------------------|
a---------------------------------------------------------------------------------------------|
E---------------------------------------------------------------------------------------------|
                  

                 G                 
Send someone to love me
           Em       
I need to rest in arms
          Am7 
Keep me safe from harm
            D      
In pouring rain

                 G
Give me endless summer
         Em         
Lord I fear the cold
            Am7      
Feel I'm getting old
           D       
Before my time

A7b9                    D
As my soul heals the shame
        G                 Em
I will grow through this pain
           Am7          D
Lord I'm doing all I can
                  G
To be a better man

e--------------3-------3------------3------|
b----------0-------0--------0-------1------|
g------0-------0---------0-----0----0------| G
d------------------------------------------|
a------------------------------------------|
E------------------------------------------|


                 G 
Go easy on my conscience
            Em             
'Cause it's not my fault
             Am7     
I know I've been taught
              D    
To take the blame

                 G
Rest assured my angels
       Em      
Will catch my tears
         Am7
Walk me out of here
        D         
I'm in pain

A7b9                  D                  
As my soul heals the shame
         G                Em
I will grow through this pain
           A7          D       
Lord I'm doing all I can
                G 
To be a better man

 Bb                                    Eb7maj
Once you've found that lover You're homeward bound
         F         
Love is all around
         G         
Love is all around

   Bb                       Eb7maj
I know some have fallen On stony ground
          Am7                 D
But Love is all around

                 G                 
Send someone to love me
           Em       
I need to rest in arms
          Am7 
Keep me safe from harm
            D      
In pouring rain

                 G
Give me endless summer
         Em         
Lord I fear the cold
            Am7      
Feel I'm getting old
           D       
Before my time

A7b9                    D
As my soul heals the shame
        G                 Em
I will grow through this pain
           Am7          D
Lord I'm doing all I can
                  G
To be a better man

end
e---------3-----3-------3---------3-------3-----3---------3------3-----------------3------|
b------0------0--------0---------1-------1-----1--------0------0-----------0-------1------|
g---0-------0---------0---------0------0------0--------0------0----------0---0-----0------| G
d-----------------------------------------------------------------------------------------|
a-----------------------------------------------------------------------------------------|
E-----------------------------------------------------------------------------------------|

Chords by ImWolf el.tripero@live.com.ar

Thanx to my Guitar professor
Tap to rate this tab
 
# A B C D E F G H I J K L M N O P Q R S T U V W X Y Z