Song name
# A B C D E F G H I J K L M N O P Q R S T U V W X Y Z

Robbie Williams - The Road To Mandalay tab

Capo on 3rd fret

VERSE 1
    Dm                          Dm6
    E  E.  S E  E  S E  S E     E  E.  S E  E  S E  S E   
e|--------------1------------|--------------1------------|
B|-----3-------------3--3----|-----0----------------0----|
G|---------2-----------------|---------2---------2-------|
D|--0--------0-----0------0--|--0--------0-----0------0--|
A|---------------------------|---------------------------|
E|---------------------------|---------------------------|
   Save me from drowning in the sea,

    Am
    E  S E  S E  E  S S S S E     E  E.  S E  E  S S S S E   
e|---------------0-------------|--------------0-------------|
B|-----0-1--------------0-1----|-----1-------------1-0------|
G|----------2----2----2-----2--|---------2-------------2----|
D|-----2------2-----2---2------|-----2-----2-------------2--|
A|--0--------------------------|--0--------------0----------|
E|-----------------------------|----------------------------|
         beat me up on the        beach.

    Dm                          Em7
    E  E.  S E  E  S E  S E     E  E  S S E  E  S E  S E   
e|--------------1------------|---------------0------------|
B|-----3----------------3----|-----------------------3----|
G|---------2---------2----2--|-----1----1-------1-1----1--|
D|--0--------0-----0------0--|-----0------0-------0----0--|
A|---------------------------|----------------------------|
E|---------------------------|--0-----0------0------------|
         What a lovely holi  -  day, there's nothing funny left to

    Asus4                        Am
    E  E.  S E  E  S S S S E     E  S E  S E  E  S S S S E   
e|--0-------------------------|---------------0-------------|
B|-----3-----3--3--------3----|-----0-1------------1-0------|
G|-----2-----2--2----2-----2--|----------2----2--------2----|
D|-----2-----2-----2-------2--|-----2------2-----2-------2--|
A|--0------0----0------0------|--0------------0-------------|
E|----------------------------|-----------------------------|
    say.

    Dm                          Dm6
    E  E.  S E  E  S E  S E     S    E.  S E  E  S S S S E   
e|--------------1------------|----------------1-------------|
B|-----3-------------3--3----|-------0-----------------0----|
G|---------2-----------------|-----------2---------2--------|
D|--0--------0-----0------0--|--0----0-----0-----0---0---0--|
A|---------------------------|------------------------------|
E|---------------------------|------------------------------|
This sombre song would drain the sun,
    Am
    E  S E  S E  E  S S S S E     E  E.  S E  E  S S S S E   
e|---------------0-------------|--------------0-------------|
B|-----0-1--------------0-1----|-----1-------------1-0------|
G|----------2----2----2-----2--|---------2-------------2----|
D|-----2------2-----2---2------|-----2-----2-------------2--|
A|--0--------------------------|--0--------------0----------|
E|-----------------------------|----------------------------|
    but it won't shine until it's sung.

    Dm                          Em7
    E  E.  S E  E  S E  S E     E  E  S S E  E  S S S S E   
e|--------------1------------|---------------0-------------|
B|-----3----------------3----|------------------------3----|
G|---------2---------2----2--|-----1----1-------1-1-----1--|
D|--0--------0-----0------0--|-----0------0-------0-----0--|
A|---------------------------|-----------------------------|
E|---------------------------|--0-----0------0------0------|
          No water running in the stream, the saddest place we've ever

    A7sus4                          A7
    S    E  S S E  E  S S S S E     E  S S S S E  E  S S S S E   
e|-------------------------------|----------------0-------------|
B|--3----3---------3--------3----|-----0-2-------------2--------|
G|------------0---------0-----0--|-----------0-------2-----0----|
D|-------2------2-----2-------2--|-----2-------2-----2-------2--|
A|--0-------0------0------0------|--0------0------0------0------|
E|-------------------------------|------------------------------|
    seen.

BRIDGE
    Fmaj7                         G7/F
    E  E  S S E  E  S S S S E     E  E  S S E  E  S S S S E   
e|---------------1-------------|---------------3-------------|
B|-----1------------------1----|-----0------------------0----|
G|----------2---------2--------|----------0---------0--------|
D|-----3------3-----3-------3--|-----0------0-----0-------0--|
A|-----------------------------|-----------------------------|
E|--1-----1------1------1------|--1-----1------1------1------|
         Everything I touched was golden, everything I loved got

    C
    E  E.  S E  E  S    S    S       E  E.  S S S S S S S S S S S  
e|--------------0-----------------|-------------0-----------------|
B|-----1--------------------------|-----1---------------1-------1-|
G|---------0----0------------0----|---------0-------0-------0-----|
D|-----2-----2-----2----3---------|-----2-----2-------2-------2---|
A|--3-----------3-----------------|---------------3-------3-------|
E|--------------------------------|-------------------------------|
    broken on the Road to Mandalay.
    F                            Em
    E  E.  S S S E  S E  S E     E  E  S S E  E  S S S S E   
e|-------------1--------------|---------------0-------------|
B|-----1--------------1-------|-----0------------------0----|
G|---------2-----2---------2--|----------0---------0--------|
D|-----3-----3------3----3----|-----2------2-----2-------2--|
A|----------------------------|--------2-------------2------|
E|--1-------------------------|--0------------0-------------|
          Every mistake I've ever made has been rehashed and then re-

    Dm                     G
    E  E.  S E  E.  S S E  T T    H.
e|--------------1--------------|--3------------------|
B|-----3----------------3----0-|--3------------------|
G|---------2--------2--------0-|---------------------|
D|-----------0--------0----0---|---------------------|
A|-----------------------------|---------------------|
E|-------------------------3---|---------------------|
    played as I got lost along the way.  (Bum bum bum)

CHORUS
[nc]         Dm             G
Bum bum bum, ba da dum, bum bum
             C              Am
Bum bum bum, ba da dum, bum bum
             F              G           Am
Bum bum bum, ba da dum, bum bum, bum ba dum

VERSE 2
Dm                               Dm6
 There's nothing left for you to give,
Am
 The truth is all that you're left with.
Dm                    Em7
 Twenty paces then at dawn,
        E7           Asus4        A7sus4
we will die and be reborn.
Dm                           Dm6
 I like to sleep beneath the trees,
Am
 have the universe at one with me.
Dm                         E7
 Look down the barrel of a gun,
                              Asus4   A7
and feel the moon replace the sun.

BRIDGE
Fmaj7                  G7/F
 Everything we've ever stolen
                           C
 has been lost returned or broken, no more dragons left to slay.
F                        Em
 Every mistake I've ever made
                             Dm                             G
has been rehashed and then replayed as I got lost along the way.
CHORUS
[nc]         Dm             G
Bum bum bum, ba da dum, bum bum
             C              Am
Bum bum bum, ba da dum, bum bum
             F              G           Am
Bum bum bum, ba da dum, bum bum, bum ba dum

             Dm             G
Bum bum bum, ba da dum, bum bum
         C              Am
Ba da da da da dum, bum bum
         F              G           Am
Ba da da da da dum, bum bum, bum ba dum

             Dm             G
Bum bum bum, ba da dum, bum bum
             C              Am
Bum bum bum, ba da dum, bum bum
             F              G           Am
Bum bum bum, ba da dum, bum bum, bum ba dum

SOLO
Dm  G  C  Am  F  G  Am

VERSE 3
    Dm                             Dm6
    E  S E  S E  S S S S S S E     S S S S S S E  S S S S S S E  
e|------------------------------|------------1--------------1----|
B|-----3----3------3-------3----|--3-3---0--------3-3---0--------|
G|-------2-------------2--------|--------------2--------------2--|
D|--0---------0--0---0---0---0--|--0---0---0---0--0---0---0------|
A|------------------------------|--------------------------------|
E|------------------------------|--------------------------------|
   Save me from drowning in the    sea,

    Am
    E  S E  S E  E  S S E  S S    E  E.  S E  E  S S S S E  
e|---------------0-------------|--------------0-------------|
B|-----0-1--------------0----1-|-----1-------------1-0------|
G|----------2----2----2----2---|---------2-------------2----|
D|-----2------2-----2------2---|-----2-----2-------------2--|
A|--0------------0-------------|--0--------------0----------|
E|-----------------------------|----------------------------|
         beat me up on the        beach.

    Dm                          Em7
    E  E.  S E  E  S E  S E     E  E  E  E  E  S S S S E  T T    T T H.
e|--------------1------------|--------------0-----------------|----------||
B|-----3----------------3----|-----------3-----3-----3--------|------1---||
G|---------2---------2-------|-----1-----1-------1-----1------|----2-----||
D|--0--------0-----0------0--|-----0-----0-----0-------0------|--2-------||
A|---------------------------|----------------------------0-3-|----------||
E|---------------------------|--0-----0-----0------0----------|----------||
         What a lovely holi  -  day, there's nothing funny left to say.
Tap to rate this tab
 
# A B C D E F G H I J K L M N O P Q R S T U V W X Y Z