Song name
# A B C D E F G H I J K L M N O P Q R S T U V W X Y Z

Robbie Williams - The Road To Mandalay tab

(tab written without capo)
verse

E||-------|-------------4-----------|-------------4-----------|
B||-------|-----6--------------6----|-----3--------------3----|
G||-------|---------5-------5----5--|---------5-------5----5--|
D||-------|-------------------------|-------------------------|
A||-------|-------------------------|-------------------------|
E||-------|-------------------------|-------------------------|


--------------3-----------------|--------------3--------------|
-----3h-4p-3-----4--------3h4---|-----4-------------4p-3h-4---|
--------------------5---5-----5-|---------5-----------------5-|
----------------------5---------|-----------5-----------------|
--------------------------------|-----------------------------|
--------------------------------|-----------------------------|

 
-------------4-----------|-------------3-----------|-------------3-----------|
-----6--------------6----|-----6--------------6----|-----6--------------6----|
---------5-------5----5--|---------4-------4----4--|---------5-------5----5--|
-------------------------|-------------------------|-------------------------|
-------------------------|-------------------------|-------------------------|
-------------------------|-------------------------|-------------------------|

  
----------------3--------------|-------------4-----------|
-----4p-3------------4p-3h-4---|-----6--------------6----|
-----------5-----------------5-|---------5-------5----5--|
-------------5-----------------|-------------------------|
-------------------------------|-------------------------|
-------------------------------|-------------------------|


-------------4-----------|--------------3-----------------|
-----3--------------3----|-----3h-4p-3-----4--------3h4---|
---------5-------5----5--|--------------------5---5-----5-|
-------------------------|----------------------5---------|
-------------------------|--------------------------------|
-------------------------|--------------------------------|


--------------3--------------|-------------4-----------|
-----4-------------4p-3h-4---|-----6--------------6----|
---------5-----------------5-|---------5-------5----5--|
-----------5-----------------|-------------------------|
-----------------------------|-------------------------|
-----------------------------|-------------------------|


-------------3-----------|-------------3-----------|--------------3-----------|
-----6--------------6----|-----6--------------6----|-----5---------------5----|
---------4-------4----4--|---------5-------5----5--|---------5--------5----5--|
-------------------------|-------------------------|-----------5--------------|
-------------------------|-------------------------|--------------------------|
-------------------------|-------------------------|--------------------------|


  pre chorus                                                  
----------------------3-----------|--------------4-----------|
-------------4---------------4----|-----4---------------4----|
-----------------5--------5----5--|---------3--------3----3--|
-------------------6--------------|-----------5--------------|
----------------------------------|--------------------------|
----------------------------------|--------------------------|

  
--------------3--------------|--------------3-----------|
-----4-----------------3h4---|-----4---------------4----|
---------5-------5---5-----5-|---------5--------5----5--|
-----------5-------5---------|-----------6--------------|
-----------------------------|--------------------------|
-----------------------------|--------------------------|



--------------4-----------|--------------3-----------|-------------4-----------|
-----4---------------4----|-----4---------------4----|-----6--------------6----|
---------5--------5----5--|---------3--------3----3--|---------5-------5----5--|
-----------5--------------|-----------5--------------|-------------------------|
--------------------------|--------------------------|-------------------------|
--------------------------|--------------------------|-------------------------|



-------------------|
--3----------------|
--3----------------|
--3----------------|
--5----------------|
-------------------|

   Save me from drowning in the sea
   Beat me up on the beach
   What a lovely holiday        
   Theres nothing funny left to say

   This sombre song would drain the sun
   But it won't shine until its sung

   No water running in the stream
   The saddest place we've ever seen

     Everything I touched was golden
     Everything I loved got broken
     On the Road to Mandalay
     Every mistake I've ever made
     Has been rehashed and then replayed
     As I got lost along the way
             Fm           Bb 
pum pum pum, pum pum pum pum
              D#          Cm
pum pum pum, pum pum pum pum
              G#          Bb       
pum pum pum, pum pum pum pum   
 Cm
pum budum


There's nothing left for you to give
The truth is all that you're left with
Twenty paces then at dawn
We will die and be reborn

I like to sleep beneath the trees
Have the universe at one with me
Look down the barrel of a gun
And feel the Moon replace the Sun

Everything we've ever stolen
Has been lost returned or broken
No more dragons left to slay
Every mistake I've ever made
Has been rehashed and then replayed
As I got lost along the way


Save me from drowning in the sea
Beat me up on the beach
What a lovely holiday
Theres nothing funny left to say
Tap to rate this tab
 
# A B C D E F G H I J K L M N O P Q R S T U V W X Y Z