Song name
# A B C D E F G H I J K L M N O P Q R S T U V W X Y Z

Robbie Williams - Angels tab

Tabbed & Arranged by:  Josh Daley

Tuning: E A E A Db E



Intro:

--0--------|
--3--------|
--2--------|
--0--------|
--2--------|
--0--------|



Verse:

--0--------0--0-0-0------|
--3--------x--0-0-0------|
--2--------2--0-4-2------| x2
--0--------0--0-4-2------|
--2--------0--0-4-2------|
--0--------0--0----------|



1st Pre-chorus:

--0----0----0----0----|
--0----3----0----0----|
--0----0----2----0----|
--2----0----4----0----|
--4----0----4----0----|
--2----5---------0----|

--2----0--0--0----|
--1----0--0--3----|
--0----0--0--2----|
--2----9--0--0----|
--0----0--0--2----|
--2----9--0--0----|


------------------x-x-x-|
------------------x-x-x-|
------------------x-x-x-|
--10----5----0----x-x-x-|
--12----7----2----x-x-x-|
--10----5----0----x-x-x-|



Chorus:

--0----0----0--0--0----|
--0----0----0--x--3----|
--2----4----0--2--2----|
--2----4----0--0--0----|
--2----4----0--0--2----|
------------0--0--0----|

--0----0----0--0--0----x----|
--0----0----0--x--3----0----|
--2----4----0--2--2----0----|
--2----4----0--0--0----2----|
--2----4----0--0--x----4----|
------------0--0--4----2----|

-----------0--0--0----|
-----------0--0--3----|
--0--------8--0--2----|
----4-2-0--0--9--0----|
-----------9--0--2----|
----------10--9--0----|



2nd Pre-chorus:

--2----0--0--0----|
--1----0--0--3----|
--0----0--0--2----|
--2----9--0--0----|
--0----0--0--2----|
--2----9--0--0----|


------------------x-x-x-|
------------------x-x-x-|
------------------x-x-x-|
--10----5----0----x-x-x-|
--12----7----2----x-x-x-|
--10----5----0----x-x-x-|



Solo:

In the song the hammer on is actually a bend,
however this can't be achieved on an acoustic guitar.

------------------------------------------|
--7-------------7-------------7-----------|
----9^7---7^9-----9^7---7^9-----9^7-------| x4
--------9-------------9-------------9-7~~-|
------------------------------------------|
------------------------------------------|
Tap to rate this tab
# A B C D E F G H I J K L M N O P Q R S T U V W X Y Z