Song name
# A B C D E F G H I J K L M N O P Q R S T U V W X Y Z

Robbie Williams - King Of Bloke And Bird tab

---------------------------------------------------------------------------
PepoTABS
---------------------------------------------------------------------------
Artist: 	Robbie Williams
Title:  	King of Bloke & Bird
---------------------------------------------------------------------------

Riff 1
|--------------------------------------------------------------|
|------3-----3-------3-----3-------3-----3-----3-----3---------|
|----0-----0-------0-----0-------0-----0-----0-----0-----------|
|--2-----2-------0-----0---------------------------------------|
|------------------------------3-----3-----3-----3-------------|
|--------------------------------------------------------------|
 

Riff 1:   .... Speak so loud
          I cant hear what you say
          Except for the occassional word
          So fates a sentimental side
          It bothers me
          No longer king of bloke and bird 



Am         C  
All of my life
Am         C
Searching hard
Am           C
Down in the wilds
    Em
Of love


G          D
Summon me now
           Am     C
Summon my life away
G          D           Am     C  
Summon me onto another day



Riff 1:  A hand through the clouds
         Keeps knocking me down
         It's no less than I deserve
         They built museums
         I dont visit them
         I've made enough trouble of my own


Am         C
Into the night
Am          C
Searching hard
Am             C
Look for the light
Em
Of love


G          D
Summon me now
           Am     C
Summon my life away
G          D           Am     C  
Summon me onto another day
G             D             Am               C
Summon the evening winter waves of falling down again
G                D            Am
I sing from the chaos in my heart
My heart


Riff 1:   Then comes the evening
          That makes life worth living
          Shoving the shoes out in the light
          She walks in
          I can hear her 
Tap to rate this tab
# A B C D E F G H I J K L M N O P Q R S T U V W X Y Z