Song name
# A B C D E F G H I J K L M N O P Q R S T U V W X Y Z

Roben Og Knud - Famse tab

Song: Famse
Artist: Roben & Knud
Album: Vivaldi og ven (2004)

Hey guys! This is my first tab EVER so please don't blame me if this isn't 100% correct.
The reason i made this tab is that i couldn't find the tab anywhere, so i decided to 
out how to play it, and i think it came out OK, so i thought i would post it here on 
So have fun with the tab :p

e--------------------------------------|
B--------------------------------------|
G--------------------------------------|
D--9--x---9-9---x---9--9----9----7s9s7-|
A--7--x---7-7---x---7--7----7----5s7s5-|
E--7--x---7-7---x---7--7----7----5s7s5-|

e--------------------------------------|
B--------------------------------------|
G--------------------------------------|
D--7---x----7-7------7-7----7-7-7-7----|
A--4---x--- 4-4------5-5----4-5-4-5----|
E--5---x----5-5------5-5----5-5-5-5----|

By the way, this is also the main riff of the song!
Tap to rate this tab
# A B C D E F G H I J K L M N O P Q R S T U V W X Y Z