Song name
# A B C D E F G H I J K L M N O P Q R S T U V W X Y Z

Robert Cray - Right Next Door tab

Legend:
/-slide down
\-slide up
^-bend
`-release bend
p-pulloff
h-hammeron
~-vibrato


Right Next Door - Robert Cray

Transcribed by Steve Schoeneman using vi.
I think this is pretty much right on the solo, it gets hard to tell in places.
Please email me with any corrections steve_schoeneman@yahoo.com

Cm                                         Eb
I can hear the couple fighting right next door 

            F           Eb                       Cm
their angry words sound clear through these thin walls.

Cm                                            Eb
Around midnight I heard him shout unfailthful one

      F                   Eb            Cm
And I knew right then the axe was gonna fall

Bb                       Cm
It's because of me, it's because of me

Cm                                       Eb
I heard him shout who is he, she mumbled low

        F              Eb           Cm
He said Baby don't you lie to me no more

Cm                                                   Bb
And I'm listenin' through these thin walls in silent shame

         F               Eb                Cm
As he called out my name, I was right next door

Bb                       Cm
It's because of me, it's because of me

Bb                  Cm
Because of me, it's because of me

Chorus

G#                     Bb                          Cm
Oh, she was right next door, and I'm such a strong persuader

G#                   Bb          Cm
She was just another notch on my guitar

G#                   Bb              Cm
She's gonna lose the man that really loves her

G#                   Bb                  Cm
In the silence I can hear their breakin' hearts

Eb  Cm Bb G# G
Solo

E-|------------------|---------------------------|-----------------|----8--11/13-11--------|
B-|----8----8--------|---------------------------|-----------------|-11^------------13-13~-|
G-|-10-8-10-8-8------|----8-10^-8--10---------8--|-----------8-11--|-----------------------|
D-|-----------10-----|-10--------------10--10----|--------11-------|-----------------------|
A-|------------------|---------------------------|------8----------|-----------------------|
E-|------------------|---------------------------|-8-11------------|-----------------------|

                                                                                
E-|-11-13^-`13---11--|----11-13^-13^-13^-----11-|----11-13^-13---11---13^--|----11-13^13^13^13^-|
B-|------------------|-13-----------------13----|-13-----------------------|-13-----------------|
G-|------------------|--------------------------|--------------------------|--------------------|
D-|------------------|--------------------------|--------------------------|--------------------|
A-|------------------|--------------------------|--------------------------|--------------------|
E-|------------------|--------------------------|--------------------------|--------------------|

                                                                                
E-|-11--------------------|----11-13^-'13-11-13^-11---|--------11-------|--------------------|
B-|----13-----------------|-13------------------------|-13---------11p8-|----8---------------|
G-|--------11p8----8------|---------------------------|-----12----------|-10----10--10--10---|
D-|-------------10---8----|---------------------------|-----------------|--------------------|
A-|--------------------10-|---------------------------|-----------------|--------------------|
E-|-----------------------|---------------------------|-----------------|--------------------|

                                                                                
E-|-----------8-----8---|-------------------|-----------------|-8-----8------------|
B-|----------8--11^-----|-11p8----8---------|-----------------|-11p8--8------------|
G-|-8-----10^-----------|------10---8-------|-8^(slow)--------|-----------10---8---|
D-|---10----------------|-------------10----|-----------------|--------------------|
A-|---------------------|----------------10-|-----------------|--------------------|
E-|---------------------|-------------------|-----------------|--------------------|

                                                                                
E-|------------------|-8---8-----------|-----------------|--------------------|
B-|-11^(slow)--------|-11^-8--8--8-----|-----------------|--------------------|
G-|------------------|--------10-8-----|-----------------|--------------------|
D-|------------------|-----------------|-10--8--10-------|--------------------|
A-|------------------|-----------------|-----------------|--------------------|
E-|------------------|-----------------|-----------------|--------------------|

                                                                                
Cm                                      Eb
At daybreak I hear him pack and say goodbye

       F                Eb             Cm
I can hear him slam the door and walk away

Cm                                         Eb
Right next door I hear that woman start to cry

         F         Eb                Cm
I should go to her, but what would I say

Bb                       Cm
It's because of me, it's because of me

Bb             Cm
Because of me, Young Bob


Chorus x2

Tap to rate this tab
# A B C D E F G H I J K L M N O P Q R S T U V W X Y Z