Song name
# A B C D E F G H I J K L M N O P Q R S T U V W X Y Z

Robert Cray - Twenty tab

E--------5-------5--------5-----5-----5----------------------------|
B------5-------5--------7-----7-----7-----7------------------------|
D----5-------5--------9-----9-----9-----9--------------------------|
G--7-------9-------10----------------------------------------------|
A------------------------------------------------------------------|
E------------------------------------------------------------------|

E--------5-------5--------5-----5-----5-------3----------------------|
B------5-------5--------7-----7-----7-----7---5----------------------|
D----5-------5--------9-----9-----9-----9-----5----------------------|
G--7-------9-------10------------------------------------------------|
A--------------------------------------------------------------------|
E--------------------------------------------------------------------|

I'm 100% that everything in this tab is right up until the last chord, but i'm pretty 
thats the right chord
Tap to rate this tab
# A B C D E F G H I J K L M N O P Q R S T U V W X Y Z