Song name
# A B C D E F G H I J K L M N O P Q R S T U V W X Y Z

Robert Cray - Time Makes Two tab

-------------------------------------------------------------------------------
			     Time Makes TWo - Robert Cray
-------------------------------------------------------------------------------

Tabbed by: Shaun Olafson
Email:     sdo_king@hotmail.com

Comments: Im pretty sure this song is played tuned up half a step, but 
	  because its a pain tuning the guitar I recommend Using a capo 
	  on the first fret. It is not impossible to play this song without 
	  a capo or a different tuning, but some parts require open strings 
	  to facilitate transitions. 

	  Also, before anybody points it out, I know the bass notes are             
	  played mostly on the E string, but I prefer to play it this way 
	  because its easier, and sounds just fine. For those who *must* 
	  do it the "right" way you should easily be able to transpose the 
	  tab yourself. If your going to do this, I highly recommend the 
	  proper tuning also; (F, Bb, Eb, Ab, C, f).

Tuning: Standard (E,B,G,D,A,E)

Notation:
| /  slide up
| \  slide down
| h  hammer-on
| p  pull-off
| ~  vibrato
| +  harmonic
| x  Mute note
| ^  Strum direction
| b  bend string to note
| r  unbend string to note

Special Bending Notation:
| () Parentheses around a note indicate plucking a note at its current 
     (bent) position.
| [] If a note is boxed it should be picked as it is being unbent.
|    If there are spaces after a bent note it means the note should be held 
     bent until a return is noted.


			      Intro

e|-----6h8p6------^4h6---4h6p4------^2h4--^2--^4-----------------|
B|-----------6----^4-----------4----^2----^2--^4-----------------|
G|-------------6--^5-------------5--^3----^3--^2-----------------|
D|---8----------------------------------------^3-----------------|
A|---------------------------------------------------------------|
E|---------------------------------------------------------------|
                               
e|-----6---6---6---6---6---6---6---6---6---6---6---6-------------|
B|-----6-6-6---6---6---6-6-6---6---6---6---6---6---6-------------|
G|-------6---------------6---------------------------------------|
D|---8-------8---6-----------------------------------------------|
A|-------------------9-------9---8---6---------------------------|
E|---------------------------------------9---8---8---1-----------|

e|-----------1--1-----1------------------------------------------|
B|---------1-4--2h4p2-1------------------------------------------|
G|-----1/2-------------------------------------------------------|
D|---3-----------------------------------------------------------|
A|---------------------------------------------------------------|
E|---------------------------------------------------------------|

e|-----6---6---6---6---6---6---6---6---6---6---6---6--4x-----------|
B|-----6-6-6---6---6---6-6-6---6---6---6---6---6---6--4x-----------|
G|-------6---------------6---------------------------------------|
D|---8-------8---6-----------------------------------------------|
A|-------------------9-------9---8---6---------------------------|
E|---------------------------------------9---8---8---------------|

e|-----6h8p6------^4h6---4h6p4------^2h4--^2--^4-----------------|
B|-----------6----^4-----------4----^2----^2--^4-----------------|
G|-------------6--^5-------------5--^3----^3--^2-----------------|
D|---8----------------------------------------^3-----------------|
A|---------------------------------------------------------------|
E|---------------------------------------------------------------|

                              Solo

e|---11b13(13)-11p9h11-----------------------6-------------------|
B|---------------------11-11~~~------------6---9p6h9-6-----------|
G|----------------------------------6-8b11   r8--------8p6-------|
D|------------------------------6h8------------------------8~~~--|
A|---------------------------------------------------------------|
E|---------------------------------------------------------------|

e|---9--------------9---9s11-9p6---------------------------------|
B|-----11-11---9-11-------------9p6--------------9~~~-6h9p6------|
G|---------------------------------9p6---------6-----------------|
D|------------------------------------8~~~-6-8-------------------|
A|---------------------------------------------------------------|
E|---------------------------------------------------------------|

e|---------------------------------------------------------------|
B|-------6-------------------------------------------------------|
G|---8b11 [11r8]-6---------6---8b10r9b10r8p6~~~------------------|
D|---------------------6h8---8-----------------------------------|
A|-------------------8-------------------------------------------|
E|---------------------------------------------------------------|


e|------------------------------------------------------------6--|
B|---------------------------6---9b11r10b11p6--------------------|
G|---------6---8b10r9b10r8p6---8--------------8p6----------------|
D|-----6h8---8-----------------------------------8---------------|
A|---8----------------------------------------------6/8\6p4------|
E|----------------------------------------------------------6----|


e|---6-9-11-11/13---13/16---16\13-16-13-------------------18\----|
B|--------------------------------------16-14\11-14-16/18--------|
G|---------------------------------------------------------------|
D|---------------------------------------------------------------|
A|---------------------------------------------------------------|
E|---------------------------------------------------------------|

e|----------9/11-11/13-13-13\11-9------11-11/13-11-9-------9-----|
B|------9h11-------------------------9---------------11----------|
G|---10---------------------------10--------------------10-------|
D|---------------------------------------------------------------|
A|---------------------------------------------------------------|
E|---------------------------------------------------------------|

E|---9p8p6-8---------------------6-6/9-6-------------------------|
B|-----------9p6-----------9-6-9---------9p6---------------------|
G|---------------8-8/10~~~-------------------8p6-----------6-----|
D|-----------------------------------------------8p6---6-8---8---|
A|---------------------------------------------------8-----------|
E|---------------------------------------------------------------|

e|-----------------6---------------------------------------------|
B|---------------9-------------------^9~~~---^7~~~---------------|
G|---8/10-8/10-------10\8-6-8---6----^8~~~---^6~~~---------------|
D|----------------------------8----------------------------------|
A|---------------------------------------------------------------|
E|---------------------------------------------------------------|

			      End Solo

e|-------6---6---6---6---6---6---6---6---------------------------|
B|-------6-6-6---6---6---6-6-6---6---6---------------------------|
G|---------6---------------6-------------------------------------|
D|---/8--------8---6---------------6-----------------------------|
A|---------------------9-------9---------------------------------|
E|---------------------------------------------------------------|

e|-----6h8p6------^4h6---4h6p4------^2h4--^2--2------------------|
B|-----------6----^4-----------4----^2----^2---------------------|
G|-------------6--^5-------------5--^3----^3---------------------|
D|---8-----------------------------------------------------------|
A|---------------------------------------------------------------|
E|---------------------------------------------------------------|

e|-----6h8p6------^4h6---4h6p4------^2h4--^2--2--2---------------|
B|-----------6----^4-----------4----^2----^2--2--2---------------|
G|-------------6--^5-------------5--^3----^3---------------------|
D|---8-----------------------------------------------------------|
A|---------------------------------------------------------------|
E|---------------------------------------------------------------|

e|-----6-6-6---6-6-6---6-6-6---6-6-6---6-6-6---6-6-6---6-6-6-----|
B|-----6-6-6---6-6-6---6-6-6---6-6-6---6-6-6---6-6-6---6-6-6-----|
G|---------------------------------------------------------------|
D|---8-------6---------------------------------------------------|
A|-------------------9-------8-------6---------------------------|
E|-------------------------------------------9-------8-----------|

e|-------6-6-6-----6-6-6---6-6-6---6-6-6---6-6-6---6-6-6---6-6-6-|
B|-------6-6-6-----6-6-6---6-6-6---6-6-6---6-6-6---6-6-6---6-6-6-|
G|---------------------------------------------------------------|
D|--------------8--------6---------------------------------------|
A|---6/8-------------------------9-------8-------6---------------|
E|-------------------------------------------------------9-------|

e|-----6-6-6---6-6-6---6-6-6---6-6-6---6-6-6---6-6---------6-6-6-|
B|-----6-6-6---6-6-6---6-6-6---6-6-6---6-6-6---6-6---------6-6-6-|
G|---------------------------------------------------------------|
D|-------------------8-------6-----------------------------------|
A|-----------8-----------------------9-------8---------5-6-------|
E|---8---------------------------------------------6-9-----------|

e|-----6-6-6---6-6-6-----6-6-6-----------------------------------|
B|-----6-6-6---6-6-6-----6-6-6-----------------------------------|
G|---------------------------------------------------------------| ..til fade
D|---------------------------------------------------------------| 
A|-------------------6/8-----------------------------------------| 
E|---9-------8---------------------------------------------------|
Tap to rate this tab
 
# A B C D E F G H I J K L M N O P Q R S T U V W X Y Z