Song name
# A B C D E F G H I J K L M N O P Q R S T U V W X Y Z

Robert De Visee - Suite No 11 For Guitar In Bm - 2 Allemande tab

ROBERT DE VISEE : Suite 11 in B Minor

ALLEMANDE

Arranged and tabbed by Gavin Emery (gavinemery@aol.com)

The following ornaments are included> You can use or omit them as you choose.

           X    = trill (from upper note.)
           )    = appoggiatura (slur to note from note below.)
           ==   = slur (hammer on or pull off.)
          

Time Signature = 2/2

Suggested Tempo = 72 bpm 

                        CII......         CII.....................
     __           _______               ____               __
      |   |  |.   |  |  |   |   |   |   |  |   |   |   |.   |   |   |   |   | 
||------|-----------------|---------0------2-|---------2----2-|-2---7---7---6x-|
||----0-|-0-------------2-|-3)--3---2--------|-3)------3------|-2---5---7---7--|
||*-----|-3==4----3--4----|-4-------4---3----|-----4---4------|-2x------6---6--|
||*-----|-----------------|-4----------------|----------------|-----5----------|
||------|-2---------------|------------------|-2--------------|----------------|
||------|-----------------|------------------|----------------|----------------|


   CVII............
       ____              ____              ____      ______       ___      __    
   |   |  |  |   |   |   |.-|  |   |   |   |  |  |   |-|  |   |   | |  |.   |
|--7---7--7--------|-5------2--3-----|-2------2--2---2=0----|------------------|
|--7---7-----7---9-|-3---------0---2-|-3---2-----0--------3-|-2x--2=3--3x---2--|
|--7---7-----------|-----------------|-----------0----------|------------------|
|--9---9-----------|-4---0-----2-----|-0--------------------|------------------|
|------------------|-----------------|----------------------|-0---2----0-------|
|------------------|-----------------|---------------3------|------------------|

                                                 LH: 2    4   2   2 3  2    1
                                                     3            1


               CII........                              CII...................
      __               __                ____      __ 
  |.   |   |   |   |.   |   |   |    |   |  |  |.   |   |  |  |  |   |  |  | 
|------2---0---2-|-----------------|------------------|------------|-2--------||
|-3)-------------|-3)-------2---3)-|-0---2==3--2x-----|------------|-2--------||
|----------4---3-|-4---------------|----------------4-|-3x-------3-|-3-------*||
|-0--------------|-4---------------|------------------|-------4----|-4-------*||
|----------4-----|-2----2---0------|------------------|------------|----------||
|----------------|--------------2--|-3---------0------|-2----------|----------||



CII.....................   CIV.........                                 CIV....
   ___        ____  ____        ___ ___        __  ____  ______            ___
   | |   |  | |  |  |  |   | |  | | | |   |.    |  |  |  |-|  |   |  |  |  | |
||---2-|-2----2--3==2----|--------------|-0--------0------------|-2-----7--7-5-|
||-----|-2----2--------5-|-4x---4-------|-0--------0------------|----0--4------|
||*----|-3----3----------|-4----4-5=4---|----------0------------|-------4------|
||*----|-4---------------|-4----------7-|-6x----4--4==5--5=4--2-|-1-----4------|
||-----|-----------------|--------------|-----------------------|--------------|
||-----|-----------------|--------------|-----------------------|--------------|


            ____      __            __     ____      __             __     __
   |  |  |  |  |   |.  | |   |   |.  |  |  |  |   |.  |  |   |   |.  |  |.  | 
|--3--3--4-------|-5-----------|-5---3--3x----2-|-2------------|-2---0--0x--2--|
|--0-----0-------|-5-----------|-3--------------|-3---2--0-----|-2------0------|
|----------------|-------------|----------------|------------2-|-0-------------|
|--2-----2--2--0-|-------------|----------------|-0------------|---------------|
|----------------|-4---2-0-----|--------0--4----|--------------|---------------|
|----------------|-----------3-|-2--------------|--------------|--------3------|


   CII...........................
                                                                           ___
   |  |  |  |   |  |  |  |   |  |  |  |   | |  |  |   | |  |  |   |  |  |  |-| 
|--2-----2--2-|-4-----4--4-|-5--5-------|-3---------|-2---------|-0------------|
|--2-----2----|-2-----2----|-2--------3-|-3-------2-|-2-------0-|-0-----2--2=3-|
|--3-----2----|-4-----4----|-2-----4----|------2----|------0----|----1---------|
|--4-----4----|-3-----3----|-4----------|-2---------|-0---------|-2------------|
|--4----------|------------|------------|-----------|-----------|--------------|
|--2----------|------------|------------|-----------|-----------|--------------|


                          CII......................................
               ____       ____       ___
   |   |   |   |  |   |   |  |   |.  |=|   |   |   |   |   |  |   | 
|-------------------|--------------------|---------------|-2----------||
|-------------------|--------2--2x-----2-|---------------|-3----------||
|--3x------3--------|-4---------4----4---|-4-----------4-|-4---------*||
|--2-------4---4==2-|-0---2-----4--------|---------4-----|-4---------*||
|------4------------|--------------------|-----2---------|-2----------||
|-------------------|--------------------|---------------|------------||

Tap to rate this tab
 
# A B C D E F G H I J K L M N O P Q R S T U V W X Y Z