Song name
# A B C D E F G H I J K L M N O P Q R S T U V W X Y Z

Robert De Visee - Suite No 8 For Guitar In G - 2 Allemande tab

SUITE IN E - Allemande - ROBERT DE VISEE (1650-1725)

[transposed from Suite No 8 for Guitar in G]

tabbed by andrewlee6@hotmail.com

tuning - E A D G B E


 Q=80   2/2

  S     H    E. S E. S   Q   E. S Q..     S   W
|-0-||--0--------------|-4--------7-------7-|-7--------------|
|---||o-5-------0-5--7-|-0---7--5-----------|-0--------------|
|---||--4--------------|--------------------|----------------|
|---||--6--------------|--------------------|-6--------------|
|---||o-7--------------|------------------7-|-7---------7--9-|
|---||--0--------------|-0------------------|---------7------|
        H    H           H.            E. S   H    E. S E. S


  H.          E. S     a Q.     E Q.     E   Q.   E a Q.    E
|-0------------------|-------------------0-|-2----4-5p4-----2-|
|-0--------------7---|-5p4------2-4--------|-4----------------|
|--------------------|---4-----------------|------------------|
|-6--------6--7------|---------------------|-1--------2-------|
|-----9--7-----------|-------2-------2-4---|------------------|
|--------------------|---------------------|--------------0---|
  Q   E. S Q  Q          Q   Q.      E E     H        Q   Q


  H       E E E E   Q  E. S E. S E. S   H       Q    Q    Q.   E Q.    E 
|-2-----------0-2-|-4--4--2-0---------|-----------------|------2-0-----2-|
|-4---------4-----|-0----------4-2----|-----------------|-0--------------|
|-----1-2-4-------|-----------------4-|-3------------3--|----------------|
|---4-------------|-------------------|-------4-4--2-4--|-1--------------|
|-2---------------|-------------------|-----------------|--------4---1---|
|-----------------|-0-----------------|-2---------------|----------------|
  E E E E H         W                   Q..   S E. S Q    H      Q   Q   


                 1.
  Q  E. S Q.     E    H     Q.    E   H.        E. S
|-------------------|---------------|--------------0--||
|-4-----2-2tr4---0--|-0-----0-----0-|-0--------------o||
|---------2---------|---------------|-----------------||
|----2----4---------|----4----------|-----------------||
|-2-----------------|-2---------2---|-----0----------o||
|-------------------|---------------|--------4--2-----||[13]
  Q  Q    H           Q  Q  Q   Q     Q   Q  Q  Q


  2.
  H.      E. S     H.      E. S   E. S E. S E. S E. S
|--------------||---------------|---------------------|
|-0----------7-||o-7-------7--9-|-9--7----------------|
|-4------------||--8------------|-6----9--8-8--9-8----|
|-4------------||--9------------|-------------------7-|
|-2------------||o-9------------|---------------------|
|--------------||--7------------|-6-------------------|
  H.      Q        W              W


  Q    Q   Q  E E   Q   E E Q.    E   E  E E E Q.    E   Q  Q  Q..   S
|----------7--7-5-|-4---2-0-4-----4-|--------2---------|----------------|
|------0---7------|-0---------------|-2--4-5---4-----2-|-------7-----9--|
|-8-----------8---|-----------------|-2----------------|-5--------------|
|-------------9---|-2---------------|------------------|----6--6--------|
|--------4-6------|-----------------|------------------|-------3--------|
|-7---------------|-------------0---|-2------------2---|-4--------------|
  Q..    S Q  Q     H.          Q     H.           Q     H     H


  Q  E E Q.     E   Q.    E   H           Q  E E Q.   E
|-----------------|---------------------|------4-4----4-|
|-4--5-4-4tr5-----|---------------------|---------------|
|----6---5------6-|-6-------------------|--------6------|
|-----------------|-6-------6-6--7-6--4-|-3------3------|
|----4------------|-4-------------------|---------------|
|--------4--------|---------------------|---------------|
  Q  Q   H          Q..     S E. S E. S   H      Q.   E


  E E H.               Q.   E Q.   E   Q  E. S Q.     E   Q  E. S Q.   E
|-4-5-2--------------|------2-2----2-|-4----------------|----2------------|
|--------------------|--------4------|-5--5--0-0tr2---0-|-2-----2-2----2--|
|-6------------------|---------------|------------------|-----------------|
|-4------6-7--6-4--2-|-1-------------|----2-------------|---------4-------|
|--------------------|--------2------|------------------|-0-------1-------|
|--------------------|---------------|-0-------4--------|-----------------|
  Q   E. S E. S E. S   H      H        Q  Q    H          H       Q.   E


                                           1.
  Q  E. S H           E. S E. S Q.      E   H..          E   H.      E. S
|---------7---------|----7-5--4-2tr0----0-|-0------------0-|-0-------------||
|-4--2--0-----------|-----------0---------|-0--------------|-0----------7-o||
|-4-----------------|---------------------|-1--------------|-1-------------||
|------------2-4--6-|-7-------------------|------2---------|-2-------------||
|-2-----------------|-----------------2---|---------2------|--------------o||
|-------------------|---------------------|-0----------0---|---------------||
  H       E. S E. S   Q    Q    Q     Q     Q    Q  Q  Q     H       Q


  2.
  H.        E E              Q
|-0-----------0-|---------0-----*|
|-0-------------|-------0-------*|
|-1-------------|-----1---------*|
|-----2-----2---|---2-----------*|
|--------2------|---------------*|
|-0-------------|-0-------------*|
  Q   Q  Q  Q     E E E E Q  Q


***************************************************************

Duration Legend
---------------
W - whole   H - half   Q - quarter   E - 8th   S - 16th   a - acciaccatura
. - note dotted    .. - note double dotted
Irregular groupings are notated above the duration line. Duration letters
will always appear directly above the note/fret number they represent the
duration for. Duration letters with no fret number below them represent rests.

Other Legend
------------
 p   - pull-off
tr   - trill
 |   - bar
||   - double bar
||o  - repeat start
o||  - repeat end
*|   - double bar (ending)
Tap to rate this tab
 
# A B C D E F G H I J K L M N O P Q R S T U V W X Y Z