Song name
# A B C D E F G H I J K L M N O P Q R S T U V W X Y Z

Robert De Visee - Suite No 9 For Guitar In Dm - 7 Bourree tab

#----------------------------------PLEASE NOTE---------------------------------#
#This file is the author's own work and represents their interpretation of the #
#song. You may only use this file for private study, scholarship, or research. #
#------------------------------------------------------------------------------#
================================================================================
          Title: Bourree from Suite in D Minor 
         Artist: Robert de Visee
 Transcribed by: Kevin J. Manges, braumstr@bright.net
                 (formerly braumeister@centuryinter.net & Kevinm2556@aol.com)
Downloaded from: http://members.tripod.com/~Braumeister/index.htm 
           Note: Piece 8 of 9 from the Suite.  Learn them all!
                 See MIDI/MP3 here also.
     Difficulty: Very easy.
           Date: 20 Mar 99 1356
================================================================================



                                     Bourree

Transcribed by Kevin J. Manges                                   Robert de Visee




                                     III---------
E||------0--|--1---------1----3/---|--5---------5----0----|
B||---3-----|-------3--------------|-------3--------------|
G||*--------|----------------------|----------------------|
D||*--------|--0--------------2----|--3-------------------|
A||---------|----------------------|-----------------4----|
E||---------|----------------------|----------------------|
      4        1    4         4       4         4    2
                              2       1    1



E|--1--------------3--1--|--0----------------0--|--1---------1----3/---|
B|-------2/---3----------|-------2--------3-----|-------3--------------|
G|-------2/---3----0-----|--2-------------------|----------------------|
D|--0--------------------|----------------------|--0--------------2----|
A|-----------------------|----------------------|----------------------|
E|-----------------------|----------------------|----------------------|
    1    3    3    4  1     2    3        4        1    4         4
         2    2                                                   2



   III---------
E|--5---------5----0----|--1--------------3--1--|--0--------------||---0-----|
B|-------3--------------|-------2----3----------|--2--------------||------3\-|
G|----------------------|-----------------------|----------------*||*--------|
D|--3-------------------|--0--------------------|----------------*||*--------|
A|-----------------4----|-------0----1----------|--0--------------||---------|
E|----------------------|-----------------3-----|-----------------||---------|
    4              2       1    2    4    4        2                      3
    1                                1    3

E|-----------------0----|--1---------0-------0--|--2----3----3\-----2--|
B|--2------2/-3\---2----|-------3----1----------|--1-------------------|
G|--2------0------------|--2--------------------|-------3----2---------|
D|------------3\---2----|--0--------------------|------------0---------|
A|----------------------|------------3----1-----|--0-------------------|
E|----------------------|-----------------------|-------3--------------|
    3         3    3       1    4    1    1        4    4    4      4
    2         2    2       2         3             1    3    1
                                                        2




              III                                     II---          I
E|--3---------------3--5--|--6----5--3-------------|------------5----3-----|
B|------------------------|-------------6--5--6----|--2--------------3--6--|
G|--3----0--2/-3----------|--0---------------------|-------2---------0-----|
D|------------------------|-------------------0----|--2/--------3----------|
A|------------------------|------------------------|-----------------------|
E|--3---------------------|------------------------|-----------------------|
    4       1  1    1  3     4    3  1  4  3  4       1    1    4    1  4
    3                                                 1         1
    2





E|--0--------------------|--------------------||
B|--2/---3----3\------2/-|--3-----------------||
G|--2/---3\---2----------|--2----------------*||
D|-----------------------|--0----------------*||
A|-----------------0-----|--------------------||
E|-----------------------|--------------------||
    2    2    2       2     2
    1    1    1             1

Tap to rate this tab
# A B C D E F G H I J K L M N O P Q R S T U V W X Y Z