Song name
# A B C D E F G H I J K L M N O P Q R S T U V W X Y Z

Robert De Visee - Suite No 9 For Guitar In Dm - 5 Gavotte tab

             |---------------------------------------|
             |              Fetisov G.A.             |
             |    THE READER FOR A GUITAR PLAYER     |
             |=======================================|
             | Gavotte                               |
             |                 Robert de Visee       |
             |---------------------------------------|
==================================================================
4/4  |   Moderaro  |  D minor
==================================================================
                           SYMBOLS
         |    quarter note           h    hammer-on
         H    half note              p    pull-off
    :    ==   tie                    /    slide
    :   (1)   ghost note             }    quarter rest
    :==       barre                 ~|~   mordant
       [mf]   expression             >
       <<<<   creschendo             <    arpegio 
         H.   dotted note            >
========================================================================
measure 7: Ida Presti adds a bass contrapunto (G, A, C) on the first
three beats of the measure - http://www.myspace.com/idapresti
[info from Franзois Kuonen - tab updated 14 March 2010 - weed@wussu.com]
========================================================================

  RHF------||--a--m-i-m--i-m-|---i\----m--a---|-a--m-i-m--i--|
  RHF------||--m-------------|-----\i---------|-m------------|
  RHF------||--i-------------|----------------|-i------------|
  RHF-p--p-||--p------p------|---p------------|-p------------|
                  ___    ___              ___      ___
      |  |     |  | | |  | |  II |  |  |  |p|   |  | | |  |
    E----0-||--1--1-3-0------|-:-------3-\1=0-|-1--3-1-0-----|
    B-3----||--3---------3-5-|-:-2------------|-3---------3--|
    G------||*-2------0------|-:----2---------|-2------------|
    D-0----||*-0-------------|-:-2------------|-0------------|
    A----4-||----------------|-===--------0---|--------3--1--|
    E------||----------------|----------------|--------------|
      |  |     H      H          H.       |     H      |  |
   <<<<<[mf](on repeat: tirando; 
  LHF      ||  1 sul pont.)
  LHF 2    ||  4  1 3    2 4 |   1     2      | 1  4 1    4  |
  LHF    3 ||  2             |                | 4            |

==================================================================
==================================================================

     RHF---a--...
     RHF---m----...
     RHF---i--------a--i--|------i-m--i--|-m---i------m--|
     RHF---p-----------m -|----p---p--p--|-p----------i--|
                                __         ___    ___
     4  II H        |  |    |.   | |  |    | | |  |p| |
       E-:-5----||--5--3--|\1----2-3--5--|-5/6-6--1=0----|
       B-:-2----||-----5--|\3--1---------|------------3--|
       G-:-2---*||*-------|--------3--2--|-0----------3--|
       D-==----*||*-------|-0=(0)--------|---------------|
       A---0----||-----0--|--------------|--------0---1--|
       E--------||--------|--------------|---------------|
           H        }  |    |  |   |  |    H      |   |
                        [mp]    <<<<<
     LHF            4  1  | 1    2 4     | 4      1   4  |
     LHF               3  | 3  1   3  1  |            3  |
     LHF                  |              |            1  |

==================================================================
==================================================================

 RHF-...                                     ...-a-----a------|
 RHF-a--a--a-----|-a-----a--a--|-m------a--m-|---m--i-----m-i-|
 RHF-m--m--m---i-|-i-----i-----|-i------i----|---i------------|
 RHF-p--p--p-----|-p--p--p-----|-p--p---p----|---p------------|
               __                    __    __             ___
 7   |  |  |.  |   H     |  |    |.   | |. |   ^ |  |  |  | |
   E-0--1--1---0-|-1-----1--0--|------0-0----|-!-------5------|
   B-------------|-------------|-3---------3-|->-2--------3-2-|
   G-3--2--0-----|-2-----2=(2)-|-3------3----|-<-2--2---------|
   D-------------|-3-\2--0-----|-------------|->-2------------|
   A----0--3-----|----------3--|-1--0--------|-<-0------------|
   E-3-----------|-------------|--------3----|----------------|
     |  |  H       |  |  |  |    |  |   H        H.       }
                                >>>>>
 LHF    1        | 1           | 4           |         4  2 1 |
 LHF 3  2        | 2           | 3      3    |                |
 LHF 2     3     | 3        3  | 1      2    |                |

==================================================================
==================================================================

               RHF-------m-m------|----------||
               RHF-m---i---i--m---|-i--------||
               RHF-p---p---p--p---|----------||
                   ___ ___      __ ~|~
              11   |h| | | |.   |   H
                 E-------0-0------|----------||
                 B-2=3-3---2----3-|-3--------||
                 G-3---0---2------|---------*||
                 D----------------|-0-------*||
                 A------------0---|----------||
                 E----------------|----------||
                   |   |   |  |     H
                
               LHF 1 3          2 | 1-2      ||
               LHF 2              |          ||

==================================================================
SOME EXPLANATIONS
***
sul pont. (=Sul ponticello) -- to play with a brittle tone
***
mordant in 12th measure:
        ___
        ===  
      | | |..   ||
    B-3-2-3-----||
    G-----------||
    D-0---------||
      H
***
tirando -- the finger of the right hand doesn't stop on the other
string after playing a note - it stops above the strings or
somewhere else... 
Tap to rate this tab
# A B C D E F G H I J K L M N O P Q R S T U V W X Y Z