Robert Folk - Ace In Africa tab

 * - pinch harmonic
 ^ - bend note or use wammy
 / - slide up
 // - full slide
 ~ - vibration

e|------------------------------------------------------------------|
B|------------------------------------------------------------------|
G|--12*^-//---------------------------------------------------------|
D|------------------------------------------------------------------|
A|------------------------------------------------------------------|
E|------------------------------------------------------------------|


e|------------------------------------------------------------------|
B|------------------------------------------------------------------|
G|-4-4-4-4-4-4-2-0---4-4-2-0-2-2*-2*~---4-4-4-4-4-4-2-0-------------|
D|-2-2-2-2-2-2-------2-2----------------2-2-2-2-2-2-----------------|
A|------------------------------------------------------------------|
E|------------------------------------------------------------------|


e|------------------------------------------------------------------|
B|------------------------------------------------------------------|
G|-4-4-0-2-2-0----------4-4-4-4-4-4-2-0---4-4-4-4-4-4-2-0-2-2*-2*~--|
D|-2-2---------2-2-2~---2-2-2-2-2-2-------2-2-2-2-2-2---------------|
A|------------------------------------------------------------------|
E|------------------------------------------------------------------|

e|------------------------------------------------------------------|
B|------------------------------------------------------------------|
G|-4-4-4-4-4-4-4-2-0---2-2-4-2-4*-4*^-------------------------------|
D|-2-2-2-2-2-2-2----------------------------------------------------|
A|------------------------------------------------------------------|
E|------------------------------------------------------------------|

e|------------------------------------------------------------------|
B|------------------------------------------------------------------|
G|-5-7-9--0-5-7-5------5-7-9--0-5-7-5-------------------------------|
D|-3-5-7---------------3-5-7------------0-3-5-5-3-5-----------------|
A|------------------------------------------------------------------|
E|------------------------------------------------------------------|


e|------------------------------------------------------------------|
B|------------------------------------------------------------------|
G|------9-9*~--------9-12*~-----------------------------------------|
D|-9-12---------9-12------------------------------------------------|
A|------------------------------------------------------------------|
E|------------------------------------------------------------------|


solo

tapping
e|------------------------------------------------------------------|
B|-597-597-597-597-597-597-597-597----------------------------------|
G|------------------------------------------------------------------|
D|------------------------------------------------------------------|
A|------------------------------------------------------------------|
E|------------------------------------------------------------------|


picking but palm muted
e|------------------------------------------------------------------|
B|-3-2-0-6-5-3-7-6-4-8-7-5-9-8-6-10-9-7-11-10-8-12-11-9-------------|
G|------------------------------------------------------------------|
D|------------------------------------------------------------------|
A|------------------------------------------------------------------|
E|------------------------------------------------------------------|


palm muted pinch harmonics
e|------------------------------------------------------------------|
B|------------------------------------------------------------------|
G|-5-7-5-7-5-7-5-7-5-7-5-7-5-7-5-7-5-7-5-7-5-7----------------------|
D|------------------------------------------------------------------|
A|------------------------------------------------------------------|
E|------------------------------------------------------------------|


e|------------------------------------------------------------------|
B|------------------------------------------------------------------|
G|--12*^------------------------------------------------------------|
D|------------------------------------------------------------------|
A|------------------------------------------------------------------|
E|------------------------------------------------------------------|


Work with the parts I gave you and you will get the full song. The tabs are working for 
I hope they will work for you two.
Tap to rate this tab
 
# A B C D E F G H I J K L M N O P Q R S T U V W X Y Z