Song name
# A B C D E F G H I J K L M N O P Q R S T U V W X Y Z

Robert Johnson - Hellhound On My Trail tab

Hellhound on my trail


Robert Johnson
Great guitar song from one of the most under rated guitar player ever.  Listen to it on 
or something to get the feel.  It was recorded in 1937 in a hotel ballroom so the 
isnt to great.  But this song basically invented blues, and it is very difficult
He used a bottle neck slide.  Tune your guitar to open g and capo the second fret

D ||--4--4--4--0--0--3--0--0--0--0--0--2--0--|--0--0--0--0--0--0--0--0--0--0--|
A ||--3--3--3-----2-----2--2--1-----1-----1--|--0-----0--0--0--------0--------|
F#||--3--3--3-----2-----2--2--1-----1-----1--|--------------------------------|
D ||-----------------------------------------|--------------------------------|
A ||-----------------------------------------|--------3-----2--------1--------|
D ||-----------------------------------------|--0-----------------------------|

--0--0--0---------|--7----7--4--4--------|--5----5--2--2----2--5--|
--3--2--3---------|--8b---8--5--5--------|--6b---6--3--3b---3--6--|
--x-----x---------|----------------------|------------------------|
-------------x----|----------------------|------------------------|
--------0----0----|----------------------|------------------------|
--0-----0----0----|----------------------|------------------------|

--5----5----0---------|-------0--0--0--0--0--0--0--|
--6b---6b---5----0----|----------------------------|
----------------------|----------------------------|
----------------------|--x-------------------------|
----------------------|--0----3-----2--------1-----|
----------------------|--0-------------------------|

-------0-----0-----0--0-----0--|--0--0--0--0-------------|
----------2-----3--3-----2-----|--3-----2--3-------2--3/-|
-------------------------------|-------------------------|
--x----------------------------|-------------------------|
--0----------------------------|-------------------------|
--0----0--------0-----0--------|--0-----0-----0----------|

--0--0--0----0----0----|--0--------------|-------0--0--0--0--0--0--|
--5--8b-8----5----5----|--2----0---------|-------0--0--0--0--0--0--|
-----------------------|-----------------|-------------------------|
-----------------------|------------0----|--x----------------------|
-----------------------|-----------------|--x----3-----2-----1-----|
-----------------------|-----------------|--x----------------------|

--0----0--0--0--0--0--0--0--0--0--|--0--0--0-----0----------|
----------------------------------|--3--3--2--2--3----------|
----------------------------------|-------------------------|
----------------------------------|--x----------------x-----|
-------3--------2--------1--------|-------------------0-----|
--0-------------------------------|--0-----0-----0----0--6/-|

-------2----0----------|-------2----------0----|--0----0--0--0--0--0--0--0--0--|
-------3----3----------|----------3--0---------|-------------------------------|
-----------------3-----|-----------------------|-------------------------------|
-----------------------|-----------------------|-------------------------------|
--0--------------------|-----------------------|-------3--------2--------1-----|
--7-----------------6/-|--7--------------------|--0----------------------------|

-------0--0--0--0--0--0--0--0--|-------0-----0--0--0--0--0--|
----------------0--0--0--0--0--|-------0--2-----3--3--2-----|
-------------------------------|----------------------------|
-------------------------------|----------------------------|
-------3--------2--------1-----|--0-------------------------|
--0----------------------------|-------0--------0-----0-----|

--0--0--0--0--0---------||
--3--3--2---------------||
------------------------||
-------------------x----||
-------------------0----||
--0-----0-----0----0----||
Tap to rate this tab
# A B C D E F G H I J K L M N O P Q R S T U V W X Y Z