Song name
# A B C D E F G H I J K L M N O P Q R S T U V W X Y Z

Robert Johnson - Walking Blues tab

Walking blues Robert Johnson
Drop A

Good luck!



   |-10/12-12-12-12-12-12--11/12-12-12--11/12-12-12-|
   |-10/12-12-12-12-12-12--11/12-12-12--11/12-12-12-|
   |------------------------------------------------|
   |------------------------------------------------|
   |------------------------------------------------|
   |------------------------------------------------|


   |-------------------------------------0-|
   |-11/12--11/12--11/12--11/12-----0/12---|
   |-11/12--11/12---------------12--0/12---|
   |----------------------------12--0/12---|
   |---------------------------------------|
   |---------------------------------------|


   |-10/12--12--12--12--12--12--12--12--12--12--12--12-|
   |-10/12----------12--12--12--12--12--12--12--12--12-|
   |---------------------------------------------------|
   |---------------------------------------------------|
   |---------------------------------------------------|
   |---------------------------------------------------|


   |-------12-------12----------------------|-----X-----|
   |-11/12----11/12----11/12-------12-12-11-|-10--X-----|
   |-------------------------12-12-12-12-11-|-10--0-----|
   |-------------------------------12-12-11-|-10--0-----|
   |-------------------------------12-12-11-|-------3/5-|
   |----------------------------------------|-----------|


  |-----------|----------------------------------|
  |----5------|--3/5-----5-----------------------|
  |-5--5--0---|--3/5--5--5--5--5\3--0--3/3--0----|
  |-5--5--0---|--3/5--5--5--5--5\3--0--3/3--0----|
  |----5----0-|-------5-----5--5\3-------------0-|
  |---------0-|----------------------------------|


    
          
  |-------------------------------|------------------------|
  |-------------------------------|-------5----------------|
  |-0-----------------------------|-------5----------------|
  |-0-0-------0-3/5\3-0-2/3-0-2/3-|-0-3/5-5-5-5-0-------0--|
  |-------2/4-----------2/3-0-2/3-|-0-------------0-2/4----|
  |-----3-------------------------|------------------------|


 



  |------------------------|-------------------X-------|
  |-----0-0--0-0-0--0----0-|-0-----------------X-------|
  |-----0-0--0---0--0----0-|-0-----------------X-------|
  |-0-----3----3-2--2-1--1-|-0------0---0-5--0-0-------|
  |-0----------------------|----2/4-------0------2/3/4-|
  |------------------------|---------------------------|


E--/12-12-12-/12-12-12-/12-12-12-/12-------|--------------------|
C#-/12-12-12-/12-12-12-/12-12-12-/12-------|----0---------------|
A------------------------------------11-12-|-12---0-0-0-0-0-0-0-|
E------------------------------------------|-12---3-3-2-2-1-1-1-|
A------------------------------------------|----0---------------|
E------------------------------------------|------3---2---1-----|

E----------------0-----|---------------|---------------|
C#---------------0-----|---------------|---------------|
A--0-------------------|--0-----0------|--0------------|
E--0-----0---0---------|--0-0-0-0------|--0-0-0-0------|
A----2/4---6/7-----2/4-|----0-0-0-2/4--|--0-0-0-0-2/4--|
E--0-----------0-------|---------------|---------------|

E-----------------------|-----5--5--5-5----------|-----------------|
C#---------0------------|--0---------------------|-----------------|
A-----------------------|--0---------------------|-----------------|
E--0---0---0---0--------|-------------0--0-------|-----------------|
A--0---0---0---0---2/4--|--------0----0--0--3/5--|-3/5-3/5-3/5-3/5-|
E-----------------------|------------------------|-----------------|

E------------------------|
C#-----------------------|
A------------------------|
E------------------------|
A--3/5----3/5----5----0--|
E------------------------|


E----------5---5-------|----------5---5-------|---------------------|
C#---------------------|----------------------|---------------------|
A------------0-------0-|----------------------|-----0---------0-----|
E--0-----0---0---0---0-|--0-----0---0---0-----|-3/5-0-3/5-3/5-0-5/7-|
A--0-2/4-----0---0-----|--0-2/4-----0---0-3/5-|---------------------|
E--0---------------2---|-0--------------------|---------------------|

E----------------|---------5---5-------|---------5---------|
C#---------------|---------------------|-------------------|
A------0---------|-----------0-------0-|-------------------|
E------0-------0-|-0-----0---0---0---0-|-0-----0---0-0-----|
A--5/7-0-3/5-5-0-|-0-2/4-----0---0-----|-0-2/4-----0-0-2/4-|
E--------------2-|-0---------------2---|-------------------|


E---/12-12-12-/12-/12-------------|--------5-5-|
C#--/12-12-12-/12-/12-------------|----3-3-----|
A---------------------12--12\-3/4-|-/4---------|
E---------------------------------|----------0-|
A---------------------------------|------------|
E---------------------------------|------------|
Tap to rate this tab
 
# A B C D E F G H I J K L M N O P Q R S T U V W X Y Z