Song name
# A B C D E F G H I J K L M N O P Q R S T U V W X Y Z

Robert Johnson - Come On In My Kitchen tab

Open A tuning - E,A,E,A,C#,e  (RJ tuned a half step flat with a capo on the 2nd)

E|-11/12-11/12-11/12-|-/12-------/12-/12-----|------------------------------|
B|-------------------|-/12-------/12-----/12-|------------------------------|
G|-------------------|------0--0-------------|-12-----0--0----0---0---0---0-|
D|-------------------|------0--0-------------|-----0----------2---2---1---1-|
A|-------------------|------0--0------0------|-----0--3---------------------|
E|-------------------|-----------------------|-0---------2----2-------1-----|

E|-------------------/12-|-/12--------11-11--10--|--------------/12-/12---11-|
B|-----------------------|-----------------------|-12-----------/12----------|
G|-0---------------------|-----------------------|---------------------------|
D|-0--0--0--0--0---------|--0---0---0----0-------|------0-----0--------------|
A|---/7--7--7--0---0-----|--0---0---0----0---0---|-0----0--0--0------0-------|
E|-0---------------------|-----------------------|---------------------------|
                 Mmm,                 mmm,                      mmm,

E|---------------------12----|--------0-----0--/12-|-/12v---------/12-12-----|
B|/12-------------/12--12-12-|-----------1-----/12-|-/12v---------/12-12-----|
G|----12v--------------------|-12v-----------------|---------------------12\-|
D|------------0--------------|-----0---------------|------0------------------|
A|--------0---0--------0-----|-0------0--0--0------|--0---0--0--0------------|
E|---------------------------|--------0------------|------------0------------|
                   mmm.                You better come on        in my kitch-

E|--------------0--|-/12-/12-/12---------------------|-----------------------|
B|------------0----|-/12-/12-/12---------------------|-----------------------|
G|\7v--------------|--------------12\10\7--/12--12v--|---0-------------------|
D|-----------------|---------------------------------|-----/5v---5\4--0------|
A|-0---0-0---------|--0-----------------0------------|-0-----------------/4v-|
E|-----0-0-0-------|--0-------0---0---------0--------|-----------------------|
 -en      Babe, it's goin' to be rainin'  out doors.

E|--------5v---------|-5--5v-----------0-/12-/12-|-/12----------/12-/12--11-|
B|-------------------|---------------------------|--------------------------|
G|-----------------0-|---------------------------|--------------------------|
D|-------------------|-0------------0------------|--------------------------|
A|-0----0----0--0----|-0------0--0--0-----0------|--0---0--0--0------0------|
E|---3----------3----|---------------------------|--0---------0------0---0--|
                                      Ah the woman I love, took from my best

E|-/12-------------/12--/12--/12-|-/12-------------------12-----|
B|-/12---------------------------|------------------/12---------|
G|-------------------------------|------12v---0--------------12-|
D|-------------------------------|--0------------0--------------|
A|--0-----0--0--0--------0----0--|--0------------0--------------|
E|--0-----------0--------0----0--|------------------------------|
   friend.         Some joker got lucky,        stole her back again.

E|---------------0-----12--|-/12v---------/12--12------|---------------0-|
B|------------1----/12-12--|-/12v---------/12--12------|------------0----|
G|--12v--------------------|-----------------------12\-|--7v-------------|
D|-------0--0--------------|-----------0---------------|-----------------|
A|-------0--0--------------|--0----0---0-----------0---|--------0--------|
E|-------------------------|--0----0---------------0---|-----------------|
             You better come on            in  my  kitch-en.    Baby, it's

E|-/12---/12---/12-----------------------------|---------------------|
B|-/12---/12---/12-----------------------------|---------------------|
G|-------------------12\10--(10)p0---/12---12--|-----/5v-------------|
D|---------------------------------------------|-----/5v---5\3p0-----|
A|--------------0------------------------------|-0----------------/4-|
E|--0-----------0------------------------------|-0-------------------|
   Goin'  to    be   rainin'      out     doors.
Tap to rate this tab
# A B C D E F G H I J K L M N O P Q R S T U V W X Y Z