Song name
# A B C D E F G H I J K L M N O P Q R S T U V W X Y Z

Robert Johnson - I Believe Ill Dust My Broom tab

Robert Johnson-I Believe I'll Dust My Broom
Tabbed By:John-Lennon
Tuning:Standard
Inrto:
E-12-12-12-12-12-12-12---|
B-----------------------2|
G-----------------------2|
D-12----11----10----9---1|
A-----------------------2|
E------------------------|
Verse:
E-------------------1212121212|----------------------1212121212|
B-------------------1212121212|----------------------1212121212|
G-------------------1212121212|--22-4-22-4-22-4-22-4-1212121212|
D-22-4-22-4-22-4-22-----------|4-22-2-22-2-22-2-22-2-----------|
A-22-2-22-2-22-2-22-----------|2-00---00---00---00-------------|
E-00---00---00---00-----------|--------------------------------|

Rundown:
E--5--4--3--2--0-|
B----------------|
G-5--4--3--2--0-1|
D---------------2|
A---------------2|
E----------------|

then go back to the verse 
really good song have a listen to the song to get the feel and have fun!
Tap to rate this tab
# A B C D E F G H I J K L M N O P Q R S T U V W X Y Z