Song name
# A B C D E F G H I J K L M N O P Q R S T U V W X Y Z

Robert Johnson - Malted Milk tab

Robert Johnson-Malted Milk
Tabbed By:John-Lennon
Tuning:Standard
Intro:
E-12-12-12-12-12-12-12-2|
B-----------------------|
G----------------------2|
D-12----11----10----9--1|
A----------------------2|
E-----------------------|
Verse:
E-5-5-5-----3-3-3-----3-3-3-----------------|
B-3-3-3-----3-3-3-----3-3-3-3-5b-5b-5b--5b-3|
G-5-5-5-2/3-4-4-4-2/3-4-4-4------------4----|
D-------------------------------------------|
A-------------------------------------------|
E-------------------------------------------|

E-5-5-5-----3-3-3-----3-3-3-5-5-5-4-4-4-3-3-3|
B-3-3-3-----3-3-3-----3-3-3-7-7-7-6-6-6-5-5-5|
G-5-5-5-2/3-4-4-4-2/3-4-4-4------------------|
D--------------------------------------------|
A--------------------------------------------|
E--------------------------------------------|

Then return back to the beginning of the verse really good song listen to the song to 
get the feel have fun!
Tap to rate this tab
 
# A B C D E F G H I J K L M N O P Q R S T U V W X Y Z