Song name
# A B C D E F G H I J K L M N O P Q R S T U V W X Y Z

Robert Johnson - Stop Breaking Down Blues tab

Stop Breaking Down Blues (Take 2)


by Robert Johnson
recording of 5th of 5 sessions, June 20 1937, Dallas, Texas
from The Complete Recordings (CBS 467246 2 & Columbia/Legacy C2K-46222 & Columbia 4622 & 
Sony 64916), copyright notice

D||--------------------------------|-----5--5--5--------------|
B||--------------------------------|--------0-----------------|
G||-----0--0--0--0--0--0--0--0--0--|--------------------------|
D||-----------------------------0--|--0-----------------------|
G||--------------------------------|--0-----0-----0--0--3--4--|
D||--0-----3--------2--------0-----|--------------------------|


D||-----5-----5-------------|-----5--5--5--------------|-----5--5--5-------------|
B||-------------------------|--------------------------|-------------------------|
G||-------------------------|--------------------------|-------------------------|
D||-------------------------|--0-----0-----0-----------|--0-----0-----0----------|
G||--0-----0-----0----3--4--|--0-----0-----0--0--3--4--|--0-----0-----0----3--4--|
D||-------------------------|--------------------------|-------------------------|


D||-----5--5--5------------|-----5--8--8--8--8--------|-----8--8--8--8--8-------|
B||------------------------|--------------5-----5-----|-------------------------|
G||--------------0---------|--5-----5-----5-----5-----|--5-----5-----5----------|
D||--0-----0-----0----x----|--5-----5-----5-----5--5--|--5-----5-----5-----5----|
G||--0-----0----------0----|--------------------------|-------------------------|
D||------------------------|--------------------------|-------------------------|


D||-----5--5--5--5--5--------|-----3--3--------3--3--3----|
B||--------------------------|--0--------0--0-------------|
G||--------------0-----------|----------------------------|
D||--------0-----0-----0-----|--------0--------0-----0----|
G||--0-----0-----0-----0--0--|--0-----0--------0-----0----|
D||-----------------------2--|--0-------------------------|


D||-----10--10--------------|-------8--8--8--5-------|-----5--5--5--5--5--------|
B||-------------------------|------------------------|--------0-----0-----0-----|
G||---------7-----0----0----|--5----5-----5-----5----|--------------------3--0--|
D||--7------7-----0----0----|--5----5-----------5----|--0-----------------------|
G||-------------------------|------------------------|--0-----------------0-----|
D||-------------------------|------------------------|--------------------0-----|


D||-----5--5--5--5-----------|-------------------||
B||--------------------------|-------------------||
G||--------------------------|-------------------||
D||--0-----0-----0-----------|--0----------------||
G||--0-----0-----0--0--3--4--|--0----------------||
D||--------------------------|-------------------||
Tap to rate this tab
# A B C D E F G H I J K L M N O P Q R S T U V W X Y Z