Song name
# A B C D E F G H I J K L M N O P Q R S T U V W X Y Z

Robert Johnson - Stones In My Passway tab

Stones In My Passway

Robert Johnson

D||--------12--12\-3--3--0\-|-----0--3--5-----3-5-5------|
B||--------12--12\-3--3--0\-|-----0--0--0-----0-0-0----0-|
G||----------------------0\-|-----0--0--0-----0-0-0----0-|
D||-------------------------|--0------------------0----0-|
G||-------------------------|--0-----------0------0--0---|
D||-------------------------|----------------------------|



-----5--3--3--5-------|------5-5-5--5--5--5----------|
--------0--0--0-------|------6-6-6--6--6--6--------0-|
-----------0--0--0----|------7-7-7--7--7--7------0---|
-----------0-----0----|------------------------0-----|
--0--------------0----|----------------------0-------|
----------------------|------------------------------|



-----5--5--5--5--5--5------|-----5--5-5-5--5--5--5----------|
-----6--6--6--6--6--6------|-----6--6-6-6--6--6--6--------0-|
-----7--7--7--7--7--7------|-----7--7-7-7--7--7--7------0---|
--0-----------0-----0------|--------------------------0-----|
--0-----------0------------|--0---------------------0-------|
-----------------------0/4-|--------------------------------|



-----5--3--3----0-0--0----|-----8b-5-8-5--8b-5---------|
-----0--0--0------0--0----|--1-----5-5-5--5------------|
-----0--0--0------0--0----|--0-----5-5-5--5------------|
--0------------------0----|--------5------------x--2/5-|
--0-----0-----0-----------|---------------------x------|
--------------------------|----------------------------|


-----8--5-8-5--8--5---------|-----5--5-5-5--5--5--5----------|
-----5--5-5-5--5------------|-----6--6-6-6--6--6--6--------0-|
--------5-5-5--5------------|-----7--7-7-7--7--7--7------0---|
----------------------------|--------------------------0-----|
--0------------------0------|--0---------------------0-------|
------------------------2/4-|--------------------------------|



-----5--3--3----5-0--0----|-------------------|-----------0-0-|
-----0--0--0------0--0----|-------------------|-----------0-0-|
-----0--0--0------0--0----|-------------------|-----0-----0-0-|
--------0-----0------0----|------------5------|-----------0---|
--0-----0-----0-----------|-------------------|---------------|
--------------------------|-------------------|--3-----2------|


-----5--3--3----5-5--5----5-|-----5--3--5-----------||
--0--0--0--0----0-0--0----0-|-----0--0--0-----------||
--0--0--0--0----0-0--0----0-|-----0--0--0-----------||
--0------------------0--0---|--0-----------0--------||
--0-----0-----0------0------|--0-----------0--------||
----------------------------|-----------------------||
Tap to rate this tab
# A B C D E F G H I J K L M N O P Q R S T U V W X Y Z