Guitaretab - guitar tabs
Song name
# A B C D E F G H I J K L M N O P Q R S T U V W X Y Z

Robert Miles - In My Dreams tab

In My Dreams-Robert Miles | Tabbed by Spannious

Ive just converted the piano/synth part into guitar

e|-------------------------------------------|
B|-10-12-13----------------------------------|
G|----------9-10-12-------9----9---10--------|
D|------------------10-12---12---12---12-9---|
A|-------------------------------------------|
E|-------------------------------------------|

e|-------------------------------------------|
B|-10-12-13----------------------------------|
G|----------9-10-12-------9----9----10----9--|
D|------------------10-12---12---12----12----|
A|-------------------------------------------|
E|-------------------------------------------|

Repeat until the last minute of the song when he changes the key.
[ Tab from: http://www.guitaretab.com/r/robert-miles/144371.html ]
e|--7-9-10-----------------------------------|
B|---------7-8-10-----7---7---8--------------|
G|----------------7-9---9---9---9--6---------|
D|-------------------------------------------|
A|-------------------------------------------|
E|-------------------------------------------|

e|--7-9-10-----------------------------------|
B|---------7-8-10-----7---7---8---7----------|
G|----------------7-9---9---9---9------------|
D|-------------------------------------------|
A|-------------------------------------------|
E|-------------------------------------------|

Then play the first part again.

The rest of the song is just drums, bass and techno-something :)

Fade/End

---------------------------------------------
Feel free to write comments!
Related for In My Dreams tab