Song name
# A B C D E F G H I J K L M N O P Q R S T U V W X Y Z

Robert Miles - Fable tab

Help us improve GuitareTab! Take a short survey!
--------------------------------------------------------------------------
			     Fable - Robert Miles
--------------------------------------------------------------------------

Tabbed by: Abdul Sameer
Email:abdulsameer99@hotmail.com

Tuning: EADGBE


				PIANO TUNE (Guitar 1)

e|-----------------------------------------------------------------------|
B|--13--11-13-------11--9-11-------13--11-13----------------13-11-13-----|
G|------------13-------------11--------------13-------13-13--------------|
D|-----------------------------------------------------------------------|
A|-----------------------------------------------------------------------|
E|-----------------------------------------------------------------------|

e|-----------------------------------------------------------------------|
B|-------13-11----------13-11-13-----------------------------------------|
G|-13-13----------13-13--------------------------------------------------|
D|-----------------------------------------------------------------------|
A|-----------------------------------------------------------------------|
E|-----------------------------------------------------------------------|

		`	Guitar Playing in Between (Acoustic)

e|--------2-----0-------------2--------0-------2-----------2----0--------|
B|------3---------3---------3--------3-------3-----------3--------3------|
G|----2-------2-----------2--------2-------2-----------2------2----------|
D|--0-------0-----------0--------0-------0-----------0------0------------|
A|-----------------------------------------------------------------------|
E|-----------------------------------------------------------------------|



==========================================================================
Related for Fable tab