Song name
# A B C D E F G H I J K L M N O P Q R S T U V W X Y Z

Robert Palmer - Johnny And Mary tab

E|------------------------------------------------------------------|
B|------------------------------------------------------------------|
G|--------------------11--11--11----9----9--9--9--------------------|
D|------9---12--------------------------------------12--11---9---9--|
A|--12-----------12-------------------------------------------------|
E|------------------------------------------------------------------|

E|------------------------------------------------------------------|
B|------------------------------------------------------------------|
G|--------------------11--11--11---9--------------------------------|
D|------9---12-------------------------12--12--12---11--------------|
A|--12----------12---------------------------------------9----------|
E|------------------------------------------------------------------|

E|------------------------------------------------------------------|
B|------------------------------------------------------------------|
G|---------------------------------------------------11---11--9-----|
D|--------9----11--12---9--------9----11---12---9-------------------|
A|---12-------------------------------------------------------------|
E|------------------------------------------------------------------|

And repeat all over again !

Tab by arpasmet.
Tap to rate this tab
 
# A B C D E F G H I J K L M N O P Q R S T U V W X Y Z