Song name
# A B C D E F G H I J K L M N O P Q R S T U V W X Y Z

Robert Palmer - She Makes My Day chords

Highlighted       Show chord diagrams
---------------------------------------------
      Robert Palmer - She Makes My Day
---------------------------------------------

Standard Tuning.
Chords used:

   E       F      F#m     Am       A  
|-----| |--1--| |--2--| |-----| |-----|
|-----| |--1--| |--2--| |--1--| |--2--| 
|--1--| |--2--| |--2--| |--2--| |--2--|
|--2--| |--3--| |--4--| |--2--| |--2--|
|--2--| |--3--| |--4--| |-----| |-----|
|-----| |--1--| |--2--| |-----| |-----|

   B     Dsus2    C#       D       E
|--2--| |-----| |--4--| |--5--| |--7--|
|--4--| |--3--| |--6--| |--7--| |--9--|
|--4--| |--2--| |--6--| |--7--| |--9--|
|--4--| |-----| |--6--| |--7--| |--9--|
|--2--| |-----| |--4--| |--5--| |--7--|
|-----| |-----| |-----| |-----| |-----|


------------------------------------------------
------------------------------------------------

1st VERSE
----------

A
I feel so lucky loving her

F#m                            Dsus2 
Tell me what else is magic for

                        E
She thinks it's better left unsaid

A
She makes her mind up at a glance

F#m                         Dsus2
It really made a difference

                   E
I seem to be unconditionally hers

Dsus2                        Am
She's like a new girl every day

                                 F
And all the rest don't bother me

                         E
I'm far too busy lovin' her

------------------------------------------------
------------------------------------------------

1st CHORUS
-------

A                     B 
I'll never be lonely now I know her

Dsus2                                 E
She fills my heart with joy, she makes my day

A                                B
She just has to smile to blow my cares away

Dsus2                                    E
She just has to touch my hand to make me stay

A
She's all good lovin' at once

F#m
She's all good lovin' at once

Dsus2
She's all good lovin' at once

E
She's all good lovin' at once

------------------------------------------------
------------------------------------------------

2nd VERSE. SAME AS FIRST
-------------------------

Our love was unintentional
She says we're not responsible
She thinks with her chin up

She always makes uncommon sense
Always knows just what to say
She always takes me unawares

In less time than it takes to fall down here
And there you are
We never fought it anyway

------------------------------------------------
------------------------------------------------

2nd CHROUS. SAME AS FIRST

------------------------------------------------
------------------------------------------------

SOLO.

A  C#(4th fret) D(5th fret) A 
Bb C#(4th fret) D(5th fret) E(7th fret) A 

------------------------------------------------
------------------------------------------------

BRIDGE. SAME AS VERSE.
----------------------

I feel so lucky loving her
Tell me what else is magic for
She thinks it's better left unsaid

She makes her mind up at a glance
It really made a difference
I seem to be unconditionally hers

She's like a new girl every day
And all the rest don't bother me
I'm far too busy lovin' her

------------------------------------------------
------------------------------------------------

FINAL CHORUS. SAME AGAIN

------------------------------------------------
------------------------------------------------
Tap to rate this tab
 
# A B C D E F G H I J K L M N O P Q R S T U V W X Y Z