Song name
# A B C D E F G H I J K L M N O P Q R S T U V W X Y Z

Robert Pattinson - Let Me Sign tab

Rob Pattinson - Let Me Sign


not 100% sure.. its just what it sounds like
i think theres an electric and an acoustic.. my tab is a bit of both i think..
listen to the song for more acurate timing.. was hard to be exact on here..
enjoy!
jacy



e|----------------------------3--------------------------------------------|
B|---------------------------------------------------------33--------------|
G|----2---5-4-5h4------------------------------------------22------0h2-2---|
D|-7-------------3-2h3---2h3----3--3--333--2h3--3335--5----22---3---------7|
A|-7----------------------------3--3--333-------3335--5---------3---------7|
E|-5----------------------------1--1--111-------1113--3-0-------1---------5|


e|---------------------------------------------3---------------------------|
B|--------------------------------------------1----------------------------|
G|-----------2---5-4—5h4---------------------2---------0-0h2-2-------------|
D|-7—5h7--7-------------3-2h3—2h3-3-3-3335------3-3-333---------5-5-7------|
A|-7------7-----------------------3-3-3335------3-3-333---------5-5-7------|
E|-5------5-----------------------1-1-1113------1-1-111---------3-3-5------|
   aaaahh			         aaaaahh	           (louder)

e|-------------------------------------------------------------------------|
B|-------------------------------------------------------------------------|
G|--------------------------------------------------------4(feedback)------|
D|--------7-7-5---------------3-------------------------5------------------|
A|--------7-7-5---------------3-------------------------5------------------|
E|--------5-5-3---------------1-------------------------3------------------|
Standing by    a broken tree   her hands are all twisted   	

e|------------------------------------------------------------------3------|
B|-----------------------------------------------------------------1-------|
G|----------------------------------------------------------------2--------|
D|------------5--5--7----------7---------------7-7-5------------3----------|
A|------------5--5--7----------7---------------7-7-5------------3----------|
E|------------3--3--5----------5---------------5-5-3------------1----------|
  she's pointing at me   i was damned by light coming over i see

e|-------------------------------------------------------------------------|
B|-------------------------------------------------------------------------|
G|-------------------------------------------------------------------------|
D|-------------------------5---------------555------------7----------------|
A|-------------------------5---------------555------------7----------------|
E|-------------------------3---------------333------------5----------------|
she spoke with a voice that  disrupted the sky she said  walk on over here 

e|-------------------------------------------------------------------------|
B|-----6h5-----------------------------------------------------------------|
G|-------------------------------------------------------------------------|
D|------------------------------3------------------3-5---------------------|
A|---------------------—---0h2--3------------------3-5---------------------|
E|------------------------------1------------------1-3---------------------|
 it’s a   bit of shade    i will wrap you in my arms and only say

e|-------------------------------------------------------------------------|
B|-------------------------------------------------------------------------|
G|-----------5h4--------------------0-0h2-----0h2---------------4(feedback)|
D|------7----------7775---55--3-----------3--------3-5----55-7-------------|
A|------7----------7775---55--3-----------3--------3-5----55-7-------------|
E|------5----------5553---33--1-----------1--------1-3----33-5-------------|
 Let me sign           let me sign

 
Tap to rate this tab
# A B C D E F G H I J K L M N O P Q R S T U V W X Y Z