Song name
# A B C D E F G H I J K L M N O P Q R S T U V W X Y Z

Robert Plant - Louie Louie tab

Robert Plant
Louie, Louie - Wayne's World 2 Soundtrack
Tabbed by Gonseg

Intro and chorus :
        A     C     D     C
e||---------------------------|
B||---------------------------|
G||---2-2-2--5-5--7-7-7--5-5--|
D||---2-2-2--5-5--7-7-7--5-5--|
A||---0-0-0--3-3--5-5-5--3-3--|
E||---------------------------|

verse:

e||-------------------------------|
B||-------------------------------|
G||---2--2-5---5-7---7-5---5------|
D||---2--2-5---5-7---7-5---5------|
A||---0--0-3---3-5---5-3---3------|
E||-------------------------------|

bridge:

e||-------------------------|
B||-------------------------|
G||-------------------------|
D||----7-5------------------|
A||--------5-7-5------------|
E||--------------5-3-5-8-5--|

solo:

e||---------------------------------------------------------|
B||--12--12--12--12--12--12--12-12----12----12----12--------|
G||--14b-14b-14--14b-14b-14b-14----14----14----14----12-----|
D||-----------------------------------------------------14~-|
A||---------------------------------------------------------|
E||---------------------------------------------------------|

e||-------------------------------------------------------------------|
B||-------------------12--12-----------------12-----------------------|
G||---------------14b-----14b-------------12-14b---12-14b~-12-12-14b~-|
D||---12-14-12-14-------------12h14h12h14-----------------------------|
A||-------------------------------------------------------------------|
E||-------------------------------------------------------------------|
Tap to rate this tab
 
# A B C D E F G H I J K L M N O P Q R S T U V W X Y Z