Song name
# A B C D E F G H I J K L M N O P Q R S T U V W X Y Z

Robert Plant - All The Kings Horses tab

#----------------------------------PLEASE NOTE---------------------------------#
#This file is the author's own work and represents their interpretation of the #
#song. You may only use this file for private study, scholarship, or research. #
#------------------------------------------------------------------------------##

Sounds pretty good to me... enjoy

Gtr I (C G C G C E) - Open C

  Q=70
 4/4
  Gtr I
  T T T T S S E E E E E E   T T T T S S E E E E E E
|-----0-----0---0---0---0-|-----0-----0---0---0---0-|
|-------0-------0---0---0-|-------0-------2---2---2-|
|---------0-----5---5---5-|---------0-----4---4---4-|
|-4h5-----------0---0---0-|-4h5---------------------|
|---------------5---5---5-|-------------0---0---0---|
|-------------0---0---0---|-------------------------|


  T T T T T E E E E E E E   S S S S E E E E E E
|---------------0---0---0-|-----------0---0---0----|
|-----------0---0---0---0-|-----------0---0---0----|
|-------0h2-----0---0---0-|-----------5---5---5----|
|-0h2h4---------5---5---5-|-----0-2---0---0---0----|
|-------------------------|-0-2-------5---5---5----|
|-------------5---5---5---|---------0---0---0------|


Duration Legend
---------------
W - whole; H - half; Q - quarter; E - 8th; S - 16th; T - 32nd;

Tablature Legend
----------------
 h   - hammer-on



***************************************************************************************
* Generated using Power Tab Editor by Brad Larsen - http://powertab.guitarnetwork.org *
***************************************************************************************
Tap to rate this tab
 
# A B C D E F G H I J K L M N O P Q R S T U V W X Y Z