Song name
# A B C D E F G H I J K L M N O P Q R S T U V W X Y Z

Robert Plant - Big Log chords

Robert Plant - Big Log

Intro       Am7  x3     Fm = xx3111  Dbmaj7 = x46564 Cm7 = x35343
---------------|
-------------1-|
-------------0-|
-------------2-|
------3-5-0----|
-1-/5----------|

       Am           |            |G       |                           |
------------------------------------------------------_ _ _ _ ---------|
---------------------------)--------------------------)       ---------|
-----4-5--4-5--7--5-7/9---7--7-5-4----4-5-4h5p4---4--5--5-5-5-5-4h5p4\-|
---7-------------------------------7------------7----------------------|
-7---------------------------------------------------------------------|
-----------------------------------------------------------------------|

Dm       |                   |Fmaj7      |        |Em      |          |
------------------------------------0---0-----------0----0--------------|
-----------------------5-3--------1-1---1----1-0----0-------------------|
-2----2-4-2h4p2----2--5-4-2-----2---2---2---2-0-----0--/4--2-------0-0--|
----5-----------5-------------3-----3---3--------3--2--------2----2-0---|
----------------------------------------------------2-----------------3-|
------------------------------------------------------------------------|

Dm          |          ||Am7              ||x3
-------1---1-----------||-0---------------|
-----3-3---3-----------||-1---------------|
---2---2---2----0-0----||-0---------------|
-0-----0---0---2-0-----||-2---------------|
-------------------3---||-0--------3-5-0--|
-----------------------||-----1-/5--------|

Verse 1
Am
 My love is in league with the freeway
     Dm
Its passion will ride as the cities fly by
         G
And the taillights dissolve in the coming of night
         Am            F              G
And the questions in thousands take flight

Am
 My love is a-miles in the waiting
    Dm
The eyes that just stare and the glance at the clock
         G                         F
And the secret that burns and the pain that grows dark

And it's you once again

Fm            Dbmaj7         Cm7           F
 Leading me on (leading me on) leading me down the road
Fm            Dbmaj7         Cm7           F           Cm  F  Cm
 Driving me on (driving me on) driving me down the road

Int    G   |F  |G  |F  |Am

Am  |   |G  |   |Dm |   |F  |   |Em |   |Dm |   |Am |   ||

Verse 2
Am
 My love is exceeding the limit
Dm
 Red eyed and fevered with the hum of the miles
 G
Distance and longing, my thoughts do provide
         Am           F           G
Should I rest for a while at the side?

Am
 Your love is cradled in knowing
Dm
 Eyes in the mirror still expecting they'll come
 G
Sensing too well when the journey is done
         Am
There is no turning back, no; there is no turning back on the run


Int  Am  |   |G  |   |Dm |   |F  |   |Em |   |Dm |   |Am |   |   ||


Outro
Am                               Dm
 My love is in league with the freeway
          G                        Am
Oh, the freeway, and the coming of night time
Dm       G                                Am
 My love, my love, is in league with the freeway
Tap to rate this tab
# A B C D E F G H I J K L M N O P Q R S T U V W X Y Z