Song name
# A B C D E F G H I J K L M N O P Q R S T U V W X Y Z

Robert Plant - Enchanter tab

Song: The Enchanter
Artist: Robert Plant and Strange Sensation
Album: The Mighty Rearranger

DROPPED D TUNING---DADGBE

Intro:
E|---------------------|----------------------------|
B|---------------------|----------------------------|
G|---------------------|-----------0----------------|
D|------0-3--0---0-----|------0-3b---3b-0-----------|
A|--0h3--------3-------|--0h3-----------------------|
D|---------------------|----------------------------|

That's pretty much the intro with little fills that go
Something along these lines:

|-----------------------------------------|
|--3/1---1--1/3----4-3-4-3h4p3----1/3-----|
|------2------------------------2---------|
|-----------------------------------------|
|-----------------------------------------|
|-----------------------------------------|

The verse is the same as the into with the same fills

"Round, round.." part before chorus:

|-----------------------------------|
|-----------------------------------|
|-----------------------------------|
|-----------------------------------|
|-1-1-0-----1-1-0-------------------|
|-1-1-0-----1-1-0-------------------|

Chorus: (strum accordingly)

"Oh that the stars..."
|----------------------------------|
|----------------------------------|
|----------------------------------|
|----------------------------------|
|-555-55-3-33-33-0-----------------|
|-555-55-3-33-33-0-----------------|

that's all I have right now, I'll get to work on the solo later...
Tap to rate this tab
# A B C D E F G H I J K L M N O P Q R S T U V W X Y Z