Guitaretab - guitar tabs
Song name
# A B C D E F G H I J K L M N O P Q R S T U V W X Y Z

Robert Plant - Mighty Rearranger tab

-----------------------------------------------------------------------------
		        Mighty Rearranger  Robert Plant
-----------------------------------------------------------------------------
Tabbed by: SWLABR
Tuning:standard

Intro: 1st guitar

e|--------------------------------------------------------------------------|
B|--------------------------------------------------------------------------|
G|---------------2-0-2------2-0-2------2-0-2------2-0-2---------------------|
D|-4 beats-----2----------2----------2----------2---------------------------|
A|-----------0----------0----------0----------0-----------------------------|
E|--------------------------------------------------------------------------|

Then 2nd guitar comes in with:

e|-------------------------------------------------|
B|---/5-3-1h3p1---------1--------------------------|
G|--------------2-2-0-2---2-0-2-2------------------|  play 3 times
D|-------------------------------------------------|
A|-------------------------------------------------|
E|-------------------------------------------------|

Then play:
[ Tab from: http://www.guitaretab.com/r/robert-plant/73623.html ]
e|------3-5-5-3------------------------------------|
B|----5---------5-3-5-3-1-3------------------------|
G|--------------------------2----------------------|
D|-------------------------------------------------|
A|-------------------------------------------------|
E|-------------------------------------------------|

The play over the vocals:

e|-------------------------------------------------|
B|---/5-3-1h3p1---------1--------------------------|
G|--------------2-2-0-2---2-0-2-2------------------|  play 3 times
D|-------------------------------------------------|
A|-------------------------------------------------|
E|-------------------------------------------------|
   Last night as I was laying down and thinking
   I was wondering about the road that lies ahead
   In my mind I heard the wisdom of the Master

e|------3-5-5-3------------------------------------|
B|----5---------5-3-5-3-1-3------------------------|
G|--------------------------2----------------------|
D|-------------------------------------------------|
A|-------------------------------------------------|
E|-------------------------------------------------|
   Hey Robert those dreams are only in your head

Then play this between verses:

e|-----------------------------------------------------|
B|-----------------------------------------------------|
G|-----------------------------------------------------|
D|-----------------------------------------------------|
A|-----0-3b----0-------0-3b-0-5-3-0--------------------|
E|-0-3------3-----0-3----------------------------------|
Related for Mighty Rearranger tab