Song name
# A B C D E F G H I J K L M N O P Q R S T U V W X Y Z

Robert Randolph And The Family Band - Thrill Of It tab

Band: Robert Randolph & The Family Band
Song: "Thrill Of It"
Album: Colorblind

Played in Drop D tuning

h: hammer-on
p: pull-off

This is the openig riff/bridge
E-------------------------|
B-------------------------|
G-------------------------|
D-------------------------|
A--------8-888888--5\3----|
d--0--7-------------------|

Verse
E---------------------------|
B---------------------------|
G---------------------------|
D---------------------------|
A--10h12--5h7------3h5--3p0-|
d--10h12--5h7------3h5--3p0-|

Chorus
E--10---12\8-8---10\5----3--| hold note
B---------------------------|
G---------------------------|
D---------------------------|
A---------------------------|
d---------------------------|

E--10---12\8-8---8/13-13---13/15-15--/22-22-|
B-------------------------------------------|
G-------------------------------------------|
D-------------------------------------------|
A-------------------------------------------|
d-------------------------------------------|

Cool thing right before the solo
E------------------------------------------|
B------------------------------------------|
G--------------------5-7p5-----------------|
D--3/5--5-55555-5--7-------7-5\3--5p3------|
A------------------------------------5-3-5-|
d------------------------------------------|

Sorry, but no solo. Robert Randolph's are impossible to figure out.

This is my first tab, so ENJOY!
Tap to rate this tab
 
# A B C D E F G H I J K L M N O P Q R S T U V W X Y Z